Children Of Bodom - Bodom Beach Terror Chords & Tabs

 

Bodom Beach Terror Chords & Tabs

Children Of Bodom Chords & Tabs

Version: 2 Type: Tab 0 ratings
1 star 2 stars 3 stars 4 stars 5 stars
comments

Bodom Beach Terror Tab

   
Children of Bodom 
Bodom Beach Terror
HateCrew DeathRoll
Tabbed by Kevin Cruz

Tune down all strings one step
                  x3                                x3
D-----------------||-------------||-----------------||-------------|
A-----------------||-------------||-----------------||-------------|
F-----------------||-------------||-----------------||-------------|
G-4---------4-5-4-||-------------||-4---------4-5-4-||-------------|
C-4---------4-5-4-||-------------||-4---------4-5-4-||-------------|
D-2-222-222-2-3-2-||-222-000-00--||-2-222-222-2-3-2-||-222-000-00--|
    ... ...          ... ... ..       ... ...          ... ... ..

D----------------------------------||------------|
A----------------------------------||------------|
F----------------------------------||------------|
G----------------------------------||------------|
C-5h7-------5h7---10p7---5h7-------||------------|
D-----00-00-----0------0-----00-00-||1-0--0--3-0-|
      .. ..     .      .     .. ..     .  .    .

D----------------------------------||-----------------|
A----------------------------------||-----------------|
F----------------------------------||-----------------|
G----------------------------------||-----------5h7h8-|
C-5h7-------5h7---10p7---5h7-------||------5h7h8------|
D-----00-00-----0------0-----00-00-||-5h7h8-----------|
      .. ..     .      .     .. ..

D----------------------------------||---------|
A----------------------------------||---------|
F----------------------------------||-----3-2-|
G----------------------------------||-5-3-3-2-|
C-5h7-------5h7---10p7---5h7-------||-5-3-1-0-|
D-----00-00-----0------0-----00-00-||-3-1-----|
      .. ..     .      .     .. ..

D----------------------------------||-------------|
A----------------------------------||-------------|
F----------------------------------||-------------|
G----------------------------------||-------------|
C-5h7-------5h7---10p7---5h7-------||-------------|
D-----00-00-----0------0-----00-00-||-1-0--0--3-0-|
      .. ..     .      .     .. ..      .  .    .

D----------------------------------||---------|
A----------------------------------||---------|
F----------------------------------||-----3-2-|
G----------------------------------||-5-3-3-2-|
C-5h7-------5h7---10p7---5h7-------||-5-3-1-0-|
D-----00-00-----0------0-----00-00-||-3-1-----|
      .. ..     .      .     .. ..
[ Tab from: http://www.guitartabs.cc/tabs/c/children_of_bodom/bodom_beach_terror_tab_ver_2.html ]
D-------------------|-------------------||---------|
A-------------------|-------------------||---------|
F-------------------|-------------------||---------|
G----4------------4-|----4------------4-||-----4-3-|
C----4------------4-|----4------------4-||-5-4-2-1-|
D-2222-222-000-2222-|-2222-222-000-2222-||-3-2-----|
  ...  ... ... ...    ...  ... ... ...     . . . 

D-------------------|-------------------||------------------|
A-------------------|-------------------||----------14-12---|
F-------------------|-------------------||-------11---------|
G----4------------4-|----4------------4-||-4-//9------------|
C----4------------4-|----4------------4-||-4-//-------------|
D-2222-222-000-2222-|-2222-222-000-2222-||-2-//-------------|
  ...  ... ... ...    ...  ... ... ...    
                           
                           x2
D--------------------------||
A--------------------------||
F-6~--7------6------9------||
G-6~--7------4-4444-7-7777-||
C-4~--5-5555---------------||
D--------------------------||
        ....   ....   ....

D----------------------------------------------------------24\0-|
A---------------------------------------------------------------|
F--------------------------------------------------------9------|
G-6----6----6----6----7----11----9----9----9----9------9--------|
C-4444-4444-4444-4444-5555-9-999-7777-7777-7777-7777-7----------|
D---------------------------------------------------------------|
  .... .... .... .... .... ..... .... .... .... .... 

                                                      x2
D-------------------------|---------------------------||
A-------------------------|---------------------------||
F-----------------5-5-5-5-|-2-2-/-5-5-/-7-7-/-9-9-9-9-||
G-4-4-/-5-5-/-7-7-5-5-5-5-|-2-2-/-5-5-/-7-7-/-9-9-9-9-||
C-4-4-/-5-5-/-7-7-3-3-3-3-|-0-0-/-3-3-/-5-5-/-7-7-7-7-||
D-2-2-/-3-3-/-5-5---------|---------------------------||

???i'm not sure about this???
D----------------------------------------------|
A----------------------------13-11----11-13-11-|
F-10-13-12----10-13-12----10-------13----------|
G----------13----------13----------------------|
C----------------------------------------------|
D----------------------------------------------|

D---------------------------------------|
A---------------------------------------|
F-12-10-12-13-12-10----10-12-13-12-10---|
G-------------------12------------------|
C---------------------------------------|
D---------------------------------------|

I'LL WRITE THE REST LATER, AS SOON AS I FIGURE OUT THE SOLOS!
Comments