Childish Gambino - Freaks And Geeks Chords & Tabs

 

Freaks And Geeks Chords & Tabs

Childish Gambino Chords & Tabs

Version: 3 Type: Tab 0 ratings
1 star 2 stars 3 stars 4 stars 5 stars
comments

Freaks And Geeks Tab

   
-------------------------------------------------------------------------------
                             Freaks and Geeks - Childish Gambino
-------------------------------------------------------------------------------
Tabbed by: OG_Retro
E-mail:

Tuning: Standard w/ Capo on 3
[ Tab from: http://www.guitartabs.cc/tabs/c/childish_gambino/freaks_and_geeks_tab_ver_3.html ]
e|-0--3--3--0--3--0----------------------------------------------------------|
B|-1-----3--0-----1----------------------------------------------------------|
G|-2-----0--0-----2----------------------------------------------------------|
D|-2-----0--2-----3----------------------------------------------------------|
A|-0-----2--2-----0----------------------------------------------------------|
E|-0-----3--0-----0----------------------------------------------------------|


Those are the chords I use to play, you can figure out the strumming pattern 
by watching Gambino's acoustic version, or listening to the song. Hope this helps!
Comments