Chikinki - Drink Chords & Tabs

 

Drink Chords & Tabs

Chikinki Chords & Tabs

Version: 1 Type: Tab 0 ratings
1 star 2 stars 3 stars 4 stars 5 stars
comments

Drink Tab

Author/Artist: Chikinki
Title: Drink
Album: Lick Your Ticket
Tabber: Andrew Biles

Standard, tuned slightly sharp - it's hard to say exactly what the tuning is, so sorry, 
you'll have to use your ear.

 Intro
|----------------------------------------------------------------------------|
|----------------------------------------------------------------------------|
|----------------------------------------------------------------------------|
|----1---1-3-1---3-3/5-5-5-----5-------------3-----5-5/6-6-6-5h6p5-5-3h5p3-1-|
|-3----3-------3-------3---3-3---3-3h5-6-5-6---6-5---5-----------------------|
|----------------------------------------------------------------------------|

 Chorus (strum)
|-4---------------------4-----------|-----|
|-4-----------8---------4---------3-|-3-4-|
|-5-----------8---------5---------3-|-3-3-|
|-6-----------8---------6---------3-|-----|
|-6-----------6---------6---------1-|-----|
|-4---------------------4-----------|-----|
                                      ^first chorus only

 Bridge (2:23)
|-----------------------------------------------------------------------------|
|-----------------------------------------------------------------------------|
|-----0-0-----x-x-----0-0-----x-x-----0-0-----x-x-----------------------------|
|-----1-1-----3-3-----1-1-----3-3-----1-1-----3-3-----1-1-----1-1-------------|
|-3-3-----3-3-----3-3-----3-3-----3-3-----3-3-----3-3-----3-3-----3-3-3-3-3-3-|
|-----------------------------------------------------------------------------|

-----------------------------------------------------|
-----------------------------------------------------|
-----------------------------------------------------|
---------------------1-1-1-1-1-1-1-1-1-1-1-1-1-1-1-1-|
-3-3-3-3-3-3-3-3-3-3-3-3-3-3-3-3-3-3-3-3-3-3-3-3-3-3-|
-----------------------------------------------------|
[ Tab from: http://www.guitartabs.cc/tabs/c/chikinki/drink_tab.html ]
 Outro
|-----------------------------------------------------------------------------|
|-----------------------------------------------------------------------------|
|-----------------------------------------------------------------------------|
|-----------------------------------------------------------------------------|
|-3-3-3-3-3-3-3-3-3-3-3-3-3-3-3-3-3-3-3-3-3-3-3-3-3-3-3-3-3-3-3-3-1-1-1-1-1-1-|
|-----------------------------------------------------------------------------|

-------------------------------------------------------|
-------------------------------------------------------|
-------------------------------------------------------|
-------------------------------------------------------|
-1-1-1-1-1-1-1-1-1-1-1---------------------------------|
-----------------------4-4-4-4-4-4-4-4-3-3-3-3-3-3-3-3-|

 Synth lead (4:12)
|-----------3------------------------|
|---4-6-4-6-------6---8-9--9-9/8-8-6-|
|-5-----------7-8---8----------------|
|------------------------------------|
|------------------------------------|
|------------------------------------|

 Rhythm (4:35)
|-----------------------------------------------------------------------------|
|-----------------------------------------------------------------------------|
|-----------------------------------------------------------------------------|
|-----1-1-----1-1-----1-1-----1-1-----1-1-----1-1-----1-1-----1-1-------------|
|-3-3-----3-3-----3-3-----3-3-----3-3-----3-3-----3-3-----3-3-----1-1-1-1-1-1-|
|-----------------------------------------------------------------------------|

-------------------------------------------------------|
-------------------------------------------------------|
-------------------------------------------------------|
-------------------------------------------------------|
-1-1-1-1-1-1-1-1-1-1-1-1-1-1-1-1-1-1-1-1-1-1-1-1-1-1-1-|
-------------------------------------------------------|

any questions? andrewbiles@hotmail.com
Comments