Chicosci - When Flight Is Denied Chords & Tabs

 

When Flight Is Denied Chords & Tabs

Chicosci Chords & Tabs

Version: 3 Type: Tab 0 ratings
1 star 2 stars 3 stars 4 stars 5 stars
comments

When Flight Is Denied Tab

Chicosci
When flight is denied
Icarus
Message:This is chicosci's most coolest song! easy to play in the band too..
I just did the rhytm so i guess i'm sori!

tabbed by: nefas_fitz
Intro
E|-----------------------------------------------------------|
B|-----------------------------------------------------------|
G|-----------------------------------------------------------|        
D|--7-7-7---5-5-5----7-7--3-3-3--8-8-8-----------------------|
A|--5-5-5---3-3-3----5-5--3-3-3--8-8-8-----------------------|
E|----------------------------1-1-1--6-6-6-------------------|


E|-----------------------------------------------------------|
B|-----------------------------------------------------------|
G|-----------------------------------------------------------|        
D|--7-7-7---5-5-5----7-7--3-3-3--8-8-8-----------------------|
A|--5-5-5---3-3-3----5-5--3-3-3--8-8-8-----------------------|
E|----------------------------1-1-1--6-6-6-------------------|


E|-----------------------------------------------------------|
B|-----------------------------------------------------------|
G|-----------------------------------------------------------|        
D|--7-7-7---5-5-5----7-7--3-3-3--8-8-8-----------------------|
A|--5-5-5---3-3-3----5-5--3-3-3--8-8-8-----------------------|
E|----------------------------1-1-1--6-6-6-------------------|

E|-----------------------------------------------------------|
B|-----------------------------------------------------------|
G|-----------------------------------------------------------|        
D|--7-7-7---5-5-5----7-7--3-3-3--8-8-8-----------------------| 
A|--5-5-5---3-3-3----5-5--3-3-3--8-8-8-----------------------|
E|----------------------------1-1-1--6-6-6-------------------|

2 times for the whole intro

Verse

E|-----------------------------------------------------------|
B|-----------------------------------------------------------|
G|-----------------------------------------------------------|        
D|5-----7--7---------5---7--7----5--7--7---------------------|
A|3-----5--5---------3---5--5----3--5--5---------------------|
E|-----------------------------------------------------------|

E|-----------------------------------------------------------|
B|-----------------------------------------------------------|
G|-----------------------------------------------------------|        
D|-----------------------------------------------------------|
A|--3-3-3-----3-3-3------------------------------------------|
E|--1-1-1-----1-1-1------------------------------------------|


E|-----------------------------------------------------------|
B|-----------------------------------------------------------|
G|-----------------------------------------------------------|        
D|5-----7--7---------5---7--7----5--7--7---------------------|
A|3-----5--5---------3---5--5----3--5--5---------------------|
E|-----------------------------------------------------------|

E|-----------------------------------------------------------|
B|-----------------------------------------------------------|
G|-----------------------------------------------------------|        
D|-----------------------------------------------------------|
A|--3-3-3-----3-3-3------------------------------------------|
E|--1-1-1-----1-1-1------------------------------------------|

 Ref

[ Tab from: http://www.guitartabs.cc/tabs/c/chicosci/when_flight_is_denied_tab_ver_3.html ]
E|-----------------------------------------------------------|
B|-----------------------------------------------------------|
G|-----------------------------------------------------------|        
D|--7-7-7---5-5-5----7-7--3-3-3--8-8-8-----------------------|
A|--5-5-5---3-3-3----5-5--3-3-3--8-8-8-----------------------|
E|----------------------------1-1-1--6-6-6-------------------|

E|-----------------------------------------------------------|
B|-----------------------------------------------------------|
G|-----------------------------------------------------------|        
D|--7-7-7---5-5-5----7-7--3-3-3--8-8-8-----------------------|
A|--5-5-5---3-3-3----5-5--3-3-3--8-8-8-----------------------|
E|----------------------------1-1-1--6-6-6-------------------|

E|-----------------------------------------------------------|
B|-----------------------------------------------------------|
G|-----------------------------------------------------------|        
D|--7-7-7---5-5-5----7-7--3-3-3--8-8-8-----------------------|
A|--5-5-5---3-3-3----5-5--3-3-3--8-8-8-----------------------|
E|----------------------------1-1-1--6-6-6-------------------|

E|-----------------------------------------------------------|
B|-----------------------------------------------------------|
G|-----------------------------------------------------------|        
D|--7-7-7---5-5-5----7-7--3-3-3--8-8-8-----------------------| 
A|--5-5-5---3-3-3----5-5--3-3-3--8-8-8-----------------------|
E|----------------------------1-1-1--6-6-6-------------------|

Chorus

E|-----------------------------------------------------------|
B|-----------------------------------------------------------|
G|-----------------------------------------------------------|        
D|--7-7-7---5-5-5----7-7--3-3-3--8-8-8-----------------------|
A|--5-5-5---3-3-3----5-5--3-3-3--8-8-8-----------------------|
E|----------------------------1-1-1--6-6-6-------------------|


E|-----------------------------------------------------------|
B|-----------------------------------------------------------|
G|-----------------------------------------------------------|        
D|--7-7-7---5-5-5----7-7--3-3-3--8-8-8-----------------------|
A|--5-5-5---3-3-3----5-5--3-3-3--8-8-8-----------------------|
E|----------------------------1-1-1--6-6-6-------------------|


E|-----------------------------------------------------------|
B|-----------------------------------------------------------|
G|-----------------------------------------------------------|        
D|--7-7-7---5-5-5----7-7--3-3-3--8-8-8-----------------------|
A|--5-5-5---3-3-3----5-5--3-3-3--8-8-8-----------------------|
E|----------------------------1-1-1--6-6-6-------------------|

E|-----------------------------------------------------------|
B|-----------------------------------------------------------|
G|-----------------------------------------------------------|        
D|--7-7-7---5-5-5----7-7--3-3-3--8-8-8-----------------------| 
A|--5-5-5---3-3-3----5-5--3-3-3--8-8-8-----------------------|
E|----------------------------1-1-1--6-6-6-------------------|

Verse 2(same as verse 1)

2nd ref.
were beautiful as one
E|-----------------------------------------------------------|
B|-----------------------------------------------------------|
G|-----------------------------------------------------------|        
D|-----------------------------------------------------------| 
A|--7-7-7-7-7-------5-5-5-5-5--------------------------------|
E|--5-5-5-5-5-------3-3-3-3-3--------------------------------|

Bridge

E|-----------------------------------------------------------|
B|-----------------------------------------------------------|
G|-----------------------------------------------------------|        
D|-----------------------------------------------------------|
A|--3-3-3-----3-3-3------------------------------------------|
E|--1-1-1-----1-1-1------------------------------------------|

un lang!!!!! regardz sa mga taga Kidapawan at davao.. :-)
Comments