Chicosci - When Flight Is Denied Chords & Tabs

 

When Flight Is Denied Chords & Tabs

Chicosci Chords & Tabs

Version: 1 Type: Tab 0 ratings
1 star 2 stars 3 stars 4 stars 5 stars
comments

When Flight Is Denied Tab

   
band: CHICOSCI
song: WHEN FLIGHT IS DENIED
album: ICARUS
tuning: drop c ( c,G,c,F,A,D )
tabbed by: CON2X


intro/ CHORUS:
D------------------------|
A------------------------|
F------------------------|
C-99-7-9-7-9-7-55-999----|
G-77-5-7-5-7-5-55-999----|
C--------------55-999----|


VERSE:GTR.1
D---------------------------------------|
A---------------------------------------|
F-99-999-999-999-77-777--777---777------|
C-99-999-999-999-77-777--777---777------|2X
G-77-777-777-777-55-555--555---555------|
C---------------------------------------|
[ Tab from: http://www.guitartabs.cc/tabs/c/chicosci/when_flight_is_denied_tab.html ]
REPEAT INTRO
REPEAT VERSE 4X
THEN
GTR.2
D----------------------------------------|
A-12-1212-10-1010-8-88-7-7H8P7-----------|
F-12-1212-11-1111-9-99-7-7---------------|
C----------------------------------------|
G----------------------------------------|
C----------------------------------------|


PRE-CHORUS:
D---------------------------------|
A---------------------------------|
F-10-------9----------------------|
C-9--------7----------------------|2X
G-9--------7----------------------|
C-9--------7----------------------|

REPEAT CHORUS
REPEAT VERSE 4X
REPEAT PRECHORUS 2X
REPEAT CHORUS


BEFORE THE BRIDGE:
D---
A---
F-9-
c-9-
G-7-
C---

UNG BRIDGE/SOLO PARANG NILALARO LANG SA 4TH STRING, PANG 12TH FRET.(F). UNG STYLE NIYA 
NIRVANA.THEN PLAY THE CHORUS

THEN,
D------------------------|
A------------------------|
F------------------------|
C-99--77--55-99----------|
G-77--55--55-99----------|
C---------55-99----------|

REPEAT CHORUS

ENDING:
D---
A---
F-9-
c-9-
G-7-
C---

ASTIG!!! CHICOSCI!!! ROCK ON!!! PAKI-RATE NA LANG
Comments