Chicosci - Theme From Conversations With Fire Chords & Tabs

 

Theme From Conversations With Fire Chords & Tabs

Chicosci Chords & Tabs

Version: 1 Type: Tab 0 ratings
1 star 2 stars 3 stars 4 stars 5 stars
comments

Theme From Conversations With Fire Tab

   
Transcribed by: Alvin (S.L.A.Y.E.R@gopilipinas.com)
Song: Theme From Conversations With Fire
Band: Chicosci
Album: Icarus
Tuning:Dropped C [C-G-C-F-A-D]

Intro:: Both Gtrs
D|----------------------------|
A|----------------------------|
F|-6-6-8-8-9-9-14-14-14/13-13-|
C|-6-6-8-8-9-9-14-14-14/13-13-|
G|-4-4-6-6-7-7-12-12-12/11-11-|
C|----------------------------|

Chorus:: Gtr. 2
D|---------------------------------------------------------------------------------------------------------------------||
A|---------------------------------------------------------------------------------------------------------------------||
F|---------------------------------------------------------------------------------------------------------------------||
C|-4-4-7h5-7h5-4-4-7h5-7h5-0-0-7h5-7h5-0-0-7h5-7h5-9-9-7-7-6-6-----9-9-7-7-6-6-----7-7-7-7-7-7-7-7-10-10-10-10-9-9-9-9-||
G|-4-4---------4-4---------0-0---------0-0---------------------7-7-------------7-7-------------------------------------||
C|-4-4---------4-4---------0-0---------0-0-----------------------------------------------------------------------------||
											Chorus:: Gtr. 1
D|---------------------------------------------------------------------------------------------------------------------||
A|---------------------------------------------------------------------------------------------------------------------||
F|-------------------------------------------------9-9-7-7-6-6-----9-9-7-7-6-6-----7-7-7-7-7-7-7-7-10-10-10-10-9-9-9-9-||
C|-4-4-4-4-4-4-4-4-4-4-4-4-0-0-0-0-0-0-0-0-0-0-0-0-------------7-7-------------7-7-----------------8--8--8--8--7-7-7-7-||
G|-4-4-4-4-4-4-4-4-4-4-4-4-0-0-0-0-0-0-0-0-0-0-0-0---------------------------------------------------------------------||
C|-4-4-4-4-4-4-4-4-4-4-4-4-0-0-0-0-0-0-0-0-0-0-0-0---------------------------------------------------------------------||
[ Tab from: http://www.guitartabs.cc/tabs/c/chicosci/theme_from_conversations_with_fire_tab.html ]
Verse:: Both Gtrs
D|----------------||
A|----------------||
F|----------------||
C|-4-4----------0~||
G|-4-4----------0~||
C|-4-4----------0~||

Pre Chorus:: Both Gtrs
D|---------------------------------------------------------------------||
A|---------------------------------------------------------------------||
F|---------------------------------------------------------------------||
C|-9-9-9-9-9-9-9-9-9-9-9-9-9-9-9-9-7-7-7-7-7-7-7-7-7-7-7-7-7-7-7-7-7-7-||
G|-7-7-7-7-7-7-7-7-7-7-7-7-7-7-7-7-5-5-5-4-4-4-5-5-5-4-4-4-5-5-5-4-4-4-||
C|---------------------------------------------------------------------||
								       ||
D|---------------------------------------------------------------------||
A|---------------------------------------------------------------------||
F|---------------------------------------------------------------------||
C|-9-9-9-9-9-9-9-9-9-9-9-9-9-9-9-9-7-7-7-7-7-7-7-7-7-7-7-7-7-7-7-7-7-7-||
G|-7-7-7-7-7-7-7-7-7-7-7-7-7-7-7-7-5-5-5-4-4-4-5-5-5-4-4-4-5-5-5-4-4-4-||
C|---------------------------------------------------------------------||

Bridge:: Both Gtrs
D|-------------------------------------------------||
A|-------------------------------------------------||
F|-17-17-17-17-17-17-17-17-17-17-17-17-17-17-17-17-||
C|-x--x--x--x--x--x--x--x--x--x--x--x--x--x--x--x--||
G|-15-15-15-15-15-15-15-15-15-15-15-15-15-15-15-15-||
C|-------------------------------------------------||

Solo::
D|-12--12--12--12--12--9--12--12--12--12--12--9--12--12--12--12--12--9------------------||
A|---10--10--10--10--10-10--10--10--10--10--10-10--10--10--10--10--10-10-9-12-9-12-9-12-||
F|--------------------------------------------------------------------------------------||
C|--------------------------------------------------------------------------------------||
G|--------------------------------------------------------------------------------------||
C|--------------------------------------------------------------------------------------||
Comments