Chicosci - Soy Chords & Tabs

 

Soy Chords & Tabs

Chicosci Chords & Tabs

Version: 1 Type: Tab 0 ratings
1 star 2 stars 3 stars 4 stars 5 stars
comments

Soy Tab

                        "SOY" BY CHICOSCI
                    transcribed by:freongang
                visit me at: freongang_81@yahoo.com        
                     freongang_08@yahoo.com

tuning: dropped D
intro:
           X8
D|--------------------  ---------------------------------|
A|--------------------  --9-9--9-9/10/9---9-9--9--9h8-9--|
F|--------------------  --7-7--7-7/8-/7---7-7--7---------|
C|---7-6--------------  ---------------------------------|
G|-5-----8-7--5-6-7-5-  ---------------------------------|
D|--------------------  ---------------------------------|

 Why do I get some headache...
D|---------------------  ----------------|
A|---------------------  ----------------|
F|---------------------  ----------------|
C|---7-6---------------  --5-6--x-5-6----|
G|-5-----8-7--5-6-7-5--  --3-4--x-3-4----|
D|---------------------  ----------------|
[ Tab from: http://www.guitartabs.cc/tabs/c/chicosci/soy_tab.html ]
  Push a side...
D|-------------------------------------|
A|-------------------------------------|
F|-------------------------------------|
C|--5--5-5---5--5-5---5--5-5-----------|
G|--5--5-5---5--5-5---5--5-5-----------|
D|--0--0-0---0--0-0---0--0-0-----------|

              I don't care about you... X8
D|--------  -----------------------------|
A|--------  -----------------------------|
F|-1-2-3--  -----------------------------|
C|-1-2-3--  --5/6--4--5-5----------------|
G|-1-2-3--  --3/4--2--3-3----------------|
D|--------  -----------------------------|

D|-------------------------------------|
A|-------------------------------------|
F|--1-2-3---1-2-3---1-2-3--------------|
C|--1-2-3---1-2-3---1-2-3--------------|
G|--1-2-3---1-2-3---1-2-3--------------|
D|-------------------------------------|

  Smack my face, my offer!  
  (as many times)                     X4  
D|------------------------------  -------------|
A|------------------------------  -------------|
F|------------------------------  -5/6---5/6---|
C|------------------------------  -------------|
G|--5/7-----5/7-----5/7---5/7---  -------------|
D|--3/5-0-0-3/5-0-0-3/5---3/5---  -------------|
           <<<<>>>>
Comments