Chicosci - Someplace Nice Chords & Tabs

 

Someplace Nice Chords & Tabs

Chicosci Chords & Tabs

Version: 1 Type: Tab 0 ratings
1 star 2 stars 3 stars 4 stars 5 stars
comments

Someplace Nice Tab

       
               "SOMEPLACE NICE"BY:CHICOSCI
                transcribed by:freongang        
            visit me at:freongang_81@yahoo.com
                 freongang_08@yahoo.com

intro:      X4
D|-----------------------------------------|
A|-----------------------------------------|
F|-----------------------------------------|
C|-----------------------------------------|
G|-5h3-4h3-3h1-2h1--5h3-4h3-3h1-2h1--------|
D|-----------------------------------------|

 First time I realized it...      X2
D|-----------------  ------------------------------|
A|-----5b------5b--  ------------------------------|
F|--5--7b---5--7b--  ------------------------------|
C|--5-------5------  -7/6--7/6--x-7/6--------------|
G|--3-------3------  -5/4--5/4--x-5/4--------------|
D|-----------------  ------------------------------|

         X3             then proceed here
D|----------------  ---------------------------|
A|----------------  ---------------------------|
F|----------------  ---------------------------|
C|-7/6--7/6--7/6--  -7/6--7/6--8--6/7--7-7-7-7-|
G|-5/4--5/4--5/4--  -5/4--5/4--6---------------|
D|----------------  ---------------------------|

 Look,who wants to be down...   X4     
D|--------------------------------|
A|--------------------------------|
F|--------------------------------|
C|--7/6--4/5--3--4----------------|
G|--5/4--2/3--1--2----------------|
D|--------------------------------|

 Come!take a look inside...  X8
D|------------------------------------|
A|------------------------------------|
F|------------------------------------|
C|---4---6/7--7-7-7-7-----------------|
G|---2--------------------------------|
D|---0--------------------------------|

                X2
D|--------------------------------------------------|
A|--------------------------------------------------|
F|-----------(let ring)-(let ring)------------------|
C|-(let ring)--4----------3-------(let ring)--------|
G|--4----------2----------1---------3---------5-----|
D|--2-------------------------------1---------3-----|
[ Tab from: http://www.guitartabs.cc/tabs/c/chicosci/someplace_nice_tab.html ]
Look,who wants to be down...   X4     
D|--------------------------------|
A|--------------------------------|
F|--------------------------------|
C|--7/6--4/5--3--4----------------|
G|--5/4--2/3--1--2----------------|
D|--------------------------------|

         X3             then proceed here
D|----------------  ---------------------------|
A|----------------  ---------------------------|
F|----------------  ---------------------------|
C|-7/6--7/6--7/6--  -7/6--7/6--8--6/7--7-7-7-7-|
G|-5/4--5/4--5/4--  -5/4--5/4--6---------------|
D|----------------  ---------------------------|

Come!take a look inside...  X8
D|------------------------------------|
A|------------------------------------|
F|------------------------------------|
C|---4---6/7--7-7-7-7-----------------|
G|---2--------------------------------|
D|---0--------------------------------|

                X4
D|--------------------------------------------------|
A|--------------------------------------------------|
F|-----------(let ring)-(let ring)------------------|
C|-(let ring)--4----------3-------(let ring)--------|
G|--4----------2----------1---------3---------5-----|
D|--2-------------------------------1---------3-----|

D|-----------------|
A|-----5b------5b--|
F|--5--7b---5--7b--|
C|--5-------5------|
G|--3-------3------|
D|-----------------|
      
Come!take a look inside...  X8
D|------------------------------------|
A|------------------------------------|
F|------------------------------------|
C|---4---6/7--7-7-7-7-----------------|
G|---2--------------------------------|
D|---0--------------------------------|
          
                 X4
D|-----------------------------------------|
A|-----------------------------------------|
F|-----------------------------------------|
C|-----------------------------------------|
G|-5h3-4h3-3h1-2h1--5h3-4h3-3h1-2h1--------|
D|-----------------------------------------|

            X3
D|----------------------------------|
A|----------------------------------|
F|-------------7-7------------------|
C|--------8-8------------7b---------|
G|---7-7------------5-5-------------|
D|----------------------------------|

  Come! Take a look inside... X4
D|------------------|
A|------------------|
F|------------------|
C|------------------|
G|-5h3-4h3-3h1-2h1--|
D|------------------|
  <<<>>>
Comments