Chicosci - Sink Or Swim Chords & Tabs

 

Sink Or Swim Chords & Tabs

Chicosci Chords & Tabs

Version: 5 Type: Tab 0 ratings
1 star 2 stars 3 stars 4 stars 5 stars
comments

Sink Or Swim Tab

chico science
sink or swim
tab by:ghenry

standard tuning

bass(inrto)
g--------------|
d------2-2-----| (4x
a----2-----2---|
e--1---------1-|

guitar
e-----------------------|
b-----------------------|
g-----------------------| (4x)
d----------7------------|
a---5--7-8---8-7--7-5-7-|
e-----------------------|

(acoustic)
e---12-11-10------------|
b---12-11-10------------|
g---12-11-10------------|
d-----------------------|
a-----------------------|
e-----------------------|
[ Tab from: http://www.guitartabs.cc/tabs/c/chicosci/sink_or_swim_tab_ver_5.html ]
guitar (verse)
e----15----11---------------15----11-------13-----15----11-----------15-----|
b-13----13----15-11-----13----13----15-11-----13----13----15-11-12-13---13--|
g--------------------12-----------------------------------------------------|
d---------------------------------------------------------------------------|
a---------------------------------------------------------------------------|
e---------------------------------------------------------------------------|

bridge
e-----------------------|
b-----------------------|
g-----------------------| (4x)
d----------7------------|
a---5--7-8---8-7--7-5-7-|
e-----------------------|

chorus
e-----------------------|
b-----------------------| (4x)
g---7-----8-------------|
d---5-----6-------------|
a------7----------------|
e------5----------------|



(repeat acoustic)
(repeat verse)

refrain
(bass)
g--------------|
d------2-2-----| (4x)
a----2-----2---|
e--1---------1-|

(guitar)
e---------------------------------------|
b---------------------------------------|
g---------------------------------------|
d---------------------------------------|
a--2-6-5-4-2-6-5-4-2-6-5-4-2-6-5-4------|
e--0-4-3-2-0-4-3-2-0-4-3-2-0-4-3-2------|


chorus
e-----------------------|
b-----------------------| (4x)
g---7-----8-------------|
d---5-----6-------------|
a------7----------------|
e------5----------------|

(outro)

chico_sci
Comments