Chicosci - Sink Or Swim Chords & Tabs

 

Sink Or Swim Chords & Tabs

Chicosci Chords & Tabs

Version: 3 Type: Tab 0 ratings
1 star 2 stars 3 stars 4 stars 5 stars
comments

Sink Or Swim Tab

   
Artist: Chicosci
Song Title: Sink or Swim
Album: Revenge of the giant robot
By: Jomigs (Jose Miguel)
E-mail(brown_sound_88@yahoo.com

Tuning(C,G,C,F,A,D)

* let ring 
/ slide

[INTRO]

D----------------------------------------- Repeat [4x]
A-----------------------------------------  
F-----------------------------------------
C----------77--------------77-------------
G-----55-------55------55------55---------
C------------------77--------------88-----

D-------------------------------- Repeat a whole bunch?
A--------------------------------
F--------------------------------
C--------------7------7--5--7----
G----5/7---7-8--8-7--------------
C--------------------------------

[VERSE]
[ Tab from: http://www.guitartabs.cc/tabs/c/chicosci/sink_or_swim_tab_ver_3.html ]
D--------17*----10-13-12-8-------15*---------10-13-12---15*-- Repeat [2x]
A---15*--------------------10---------17*-------------8------
F------------------------------------------------------------
C------------------------------------------------------------
G------------------------------------------------------------
C------------------------------------------------------------ 

[CHORUS]

D--------------------------------------------------- Repeat[3x], and then............
A---------------------------------------------------
F---------------------------------------------------
C--------------7-------7--5--7----------------------
G----5/7---7-8---8-7--------------------------------
C---------------------------------------------------
     Lost the feeling in my, lost the feeling in my head


D----------------------
A----------------------
F----------------------
C--------------7-------
G----5/7---7-8---8-7*--
C----------------------


D----------------------- Repeat [4x]
A-----------------------
F-----------------------
C---12*---7*---8*-------
G---12*---7*---8*-------
C---12*---7*---8*-------
                     Lost the feeling in my head Just wanna feel it once again......... 


and then Verse [Repeat]
after the verse [chorus]

and then the break.............

D----------------- Repeat [8x]
A-----------------
F-----------------
C---55-88-77-33---
G---55-88-77-33---
C---55-88-77-33---

Angels go away!!!
Angels go away!!!!!
Comments