Chicosci - Sink Or Swim Chords & Tabs

 

Sink Or Swim Chords & Tabs

Chicosci Chords & Tabs

Version: 2 Type: Tab 0 ratings
1 star 2 stars 3 stars 4 stars 5 stars
comments

Sink Or Swim Tab

band:chicosci;song:sink or swim;
album:revenge of the giant robot
tabbed by:Daryl A.
standard tuning
-listen to the music and know the songs running order
engage comment:0919-246-5288

intro:tiz is a bass job but u 
  can do it on guitr like tiz
-----------------------------------|
-----------------------------------|
-----------------------------------|
-----5-5-------------5-5-----------|
-3-3-----3-3-----3-3-----3-3-------|
-------------3-3-------------4-4---|

gtr part
-------------------------
-------------------------
-------------------------
-------5-----5---5/6/5---
-3-5h6---6-5---8---------
-------------------------

acoustic
------------------------------------------------
-8-8-8-6-6-6-4-4-4-3-3-3----3---1-----3-1---3---
-8-8-8-7-7-7-5-5-5-3-3-3-0-0--3-0-3-3-0-0-0-3---
------------------------------------------------
------------------------------------------------
------------------------------------------------
[ Tab from: http://www.guitartabs.cc/tabs/c/chicosci/sink_or_swim_tab_ver_2.html ]
verses:
----15----11---------------15----11-------13-----15----11-----------15-----|
-13----13----15-11-----13----13----15-11-----13----13----15-11-12-13---13--|
--------------------12-----------------------------------------------------|
---------------------------------------------------------------------------|
---------------------------------------------------------------------------|
---------------------------------------------------------------------------|

verse:2nd gtr
|-15-|
|-13-|
|-13-|
|----|
|----|
|----|

repeat the intro guitr part theres a cut
in that part before entering to chorus and
its tiz.
---------------
---------------
---------------
-------5-------
-3-5h6---6-5---
---------------


chorus:
-------------
-4-----------
-5---3---5---
-5---5---6---
-3---5---6---
-----3---4---




bridge:*repeat the very 1st intro part 
        before entering throug tiz
-----------------
-----------------
-----------------
-3---6---5---1---
-3---6---5---1---
-1---4---3-------

lyrics:

What's my motivation as I serve up my aggression over you 
Sometimes I get so schizophrenic 
All your caring I don't need it 
Orchestrated madness over you 

Lost this feeling in my head 
Just want to feel this once again 

Eat up my confession as I try to come off pleasant 
so untrue, so untrue 
It's like you never left me 
Your voice it always scares me 
Frustrated sadness over you 

Please just go away 

       ~end~
Comments