Chicosci - Shallow Graves Chords & Tabs

 

Shallow Graves Chords & Tabs

Chicosci Chords & Tabs

Version: 2 Type: Tab 0 ratings
1 star 2 stars 3 stars 4 stars 5 stars
comments

Shallow Graves Tab



Freeeeeek! ``o
Chicosci - Shallow Graves
Tuning = Drop C


Intro / Guitar 1

0:02 to 0:22

D|------------------------------|
A|------------------------------|
F|------------------------------|
C|--5--5-8--8-0-----------------|
G|--5--5-8--8-0-----------------| X16
c|--5--5-8--8-0-----------------|

0:23 to 0:33


D|---------------------------|
A|---------------------------|
F|--5/7--7-7/10--1010--------|
C|---------------------------|	x8
G|--3/5--5-5/8----8-8--------| 
C|---------------------------|

Intro / Guitar 2

(just listen to the song for the pattern)

D|-----------------------------------|
A|--(5)---(5)(5)---(5)---(5)---------|  
F|-----(5)------(5)---(5)------------|
C|-----------------------------------|	x24
G|-----------------------------------|
C|-----------------------------------|


Verse (guitar 1) pm

D|-----------------------------|
A|-----------------------------|
F|--------------7--------------|
C|--5-5-5-8-8-8----------------| x8
G|-----------------------------|
C|-----------------------------|


Verse (guitar 2) pm

D|---------------------|
A|------------6-6------|
F|----5/7 7/5----------| 
G|---------------------| 
C|---------------------| X8
G|---------------------|




CHORUS (guitar 1)

D|------------------------------|
A|------------------------------|
F|------------------------------|
C|--5--5-8--8-0-----------------|
G|--5--5-8--8-0-----------------| X8 "Are we dying"
c|--5--5-8--8-0-----------------|


[ Tab from: http://www.guitartabs.cc/tabs/c/chicosci/shallow_graves_tab_ver_2.html ]
"Why are fresh tears flowing?" 
D|------|
A|------|
F|------|
C|--3---|
G|--3---| (let ring)
c|--3---|


CHORUS (guitar 2)

D|-----------------------------------|
A|--(5)---(5)(5)---(5)---(5)---------|  
F|-----(5)------(5)---(5)------------|
C|-----------------------------------|	x8
G|-----------------------------------|
C|-----------------------------------|

"Why are fresh tears flowing?" 
D|------|
A|------|
F|------|
C|--3---|
G|--3---| (let ring)
c|--3---|


PRE VERSE (guitar 1) "White roses all around us now"

D|------------------------------|
A|------------------------------|
F|------------------------------|
C|--5--5-8--8-0-----------------|
G|--5--5-8--8-0-----------------| X4
c|--5--5-8--8-0-----------------|



D|------|
A|------|
F|------| "A little prayer signaling the end"
C|--3---|
G|--3---| (let ring)
c|--3---|

PRE VERSE (guitar 2)

D|-----------------------------------|
A|--(5)---(5)(5)---(5)---(5)---------|  
F|-----(5)------(5)---(5)------------|
C|-----------------------------------|	x4
G|-----------------------------------|
C|-----------------------------------|

D|------|
A|------|
F|------| "A little prayer signaling the end"
C|--3---|
G|--3---| (let ring)
c|--3---|


Do another verse
Another Chorus
Another Pre Verse

D|------| 01:44
A|------|
F|------| "A little prayer signaling the end.. a little prayer..."
C|--3---|
G|--3---| (let ring) x2
c|--3---|


"Enter the wake of our design, a funeral to end the last embrace


D|------|
A|------|
F|------| 02:04
C|--3---|
G|--3---| 
c|--3---|

Then do another chorus
Outro is the same as the intro
Comments