Chicosci - Paris Chords & Tabs

 

Paris Chords & Tabs

Chicosci Chords & Tabs

Version: 5 Type: Tab 0 ratings
1 star 2 stars 3 stars 4 stars 5 stars
comments

Paris Tab

chicosci;song:paris;album:methods of breathing
tabbed by: Daryl A.
dropped D tuning
engage comment:0919-246-5288

intro:
pm  .
-----------------|-----------------------
-----------------|-9-6-4-4-4-4-4-4-4-4---
-----------------|-8-5-3-3-2-3-3-3-2-3---
----6-8-8-8-8-8--|-6-3-1-1-1-1-1-1-1-1---
----6------------|-6-3-1-------1---------
----6------------|-6-3-1-------1---------
       6x

verses:                2nd gtr
pm  .
-----------------|     --------------      
-----------------|     --------------  
-----------------|     --------------
----6-8-8-8-8-8--|     -------5------ 
----6------------|     -4-4-4---6b---
----6------------|     --------------

chorus:
"spek now and........took you so."
-----------------------------------
-9-6-4-4-4-4-----------------------
-8-5-3-3-2-3-----------------------
-6-3-1-1-1-1-------------------1---
-6-3-1-------------------------1---
-6-3-1-------------------------1---

[ Tab from: http://www.guitartabs.cc/tabs/c/chicosci/paris_tab_ver_5.html ]
adlib:                                
----------10----10-11-10---
-11-11-11----11------------
---------------------------
---------------------------
---------------------------
---------------------------
           8x
pm      .                                    pm  . . . . . . . .
------|--------------------------------------   ---------------------     
------|---8-8--------------------------------   ---------------------
------|-------10-10-8-8-7-7------------------   -----------------3---  
------|---------------------10-10-8-8-8/10---   -----------------3---
------|-0------------------------------------   -0-0-0-0-0-0-0-0-1--- 
-12/0-|-0------------------------------------   -0-0-0-0-0-0-0-0-----
                        8x

----------------------------------
----------------------------------
----------------------------------
--8-8-8-6-6-6-5-5-5---------------
--------------------8-8-8-6-6-6---
----------------------------------
               4x 


last part:
"you and I step into.......I have this
--------------------------------------
-9---6---4------------------------9---
-8---5---3------------------------8---
-6---3---1------------------------6---
-6---3---1------------------------6---
-6---3---1------------------------6---

                            
lyrics:

Will I stay on your mind 
Why am I so infected 
The way that we Could I be so affected 
shine 

Speak now or forever fall into pieces 
I took you so fast 
The way we are is just a movie sequence 
I took you so 

I can't ever deny this 
This gift you won't hide 
This scene that we're in together 
The story of our lives 
Broken, lover 
Tears flow, endless rivers 
One love, one heart 
Still we won't sever 

Speak now or forever fall into pieces 
I took you so fast 
The way we are is just a movie sequence 
I took you so fast 
Speak now or forever fall into pieces 
I took you so fast 
The way we are is just a movie sequence 
I took you so fast 

Could I be so affected 
Will I stay on your mind 
Why am I so infected 
The way that we shine 
Twisting, turning 
As we move further 
My own prayer 
We will both emerge 

You and I step into the light 
I'm so graced 
That I have this 
You and I step into the light 
I'm so graced 
That I have this 


   ~end~
Comments