Chicosci - Paris Chords & Tabs

 

Paris Chords & Tabs

Chicosci Chords & Tabs

Version: 4 Type: Tab 0 ratings
1 star 2 stars 3 stars 4 stars 5 stars
comments

Paris Tab

Artist:Chicosci
Title:Paris
Album:Method of breathing
Tabbed by:Daryl A.
Dropped D tuning

-this tab will work I tell you!...
if any errors just text 0919-2465288

Intro:
pm .    .
---6----6----|--6----3----1----------1-----------6----3-----------
---6----6----|--6----3----1----------1-----------6----3-----------
-----8----8--|--6----3----1----------1-----------6----3-----------
-------------|--8----5-------3-2-3------3-2-3----8----5-----------
-------------|--6----3---------------------------6----3-----------
-------------|--6----3---------------------------6----3-----------
     6x

Verse:
pm .    .
---6----6-------
---6----6-------
-----8----8-----
----------------
----------------
----------------

2nd guitar
----------------
----------------
----------------
-------5--------
---444---6b-----
----------------


Chorus:                                 took you so..  
--6----3----1--------1---------|--6----3----1--------
--6----3----1--------1---------|--6----3----1--------
--6----3----1--------1---------|--6----3----1--------
--8----5------3-2-3----3-2-3---|--8----5----1--------
--6----3-----------------------|--6----3-------------
--6----3-----------------------|--6----3-------------

[ Tab from: http://www.guitartabs.cc/tabs/c/chicosci/paris_tab_ver_4.html ]
adlib:                      pm .
---------------------------|---0--------------------------------------|
---------------------------|---0--------------------------------------|
---------------------------|------------------------10-10-8-8-8h10----|
---------------------------|----------10-10-8-8-7-7-------------------|
--11-11-11-----------------|------8-8---------------------------------|
-----------10-10-10-11-10--|------------------------------------------|
           8x                                    8x                          
    
----------------------------------
--------------------8-8-8-6-6-6---
--8-8-8-6-6-6-5-5-5---------------
----------------------------------
----------------------------------
----------------------------------
           4x

you and I step into the line...(last part)
--6--3--1---------
--6--3--1---------
--6--3--1---------
--8--5--3---------
------------------
------------------
     2x


Lyrics:

could I be so affected
will I stay on your mind
why am I so infected 
the way that we shine

Chorus:
speak now or forever into pieces
I took you so fast
the way we are is just a movie sequence
I took you so

I can't ever deny this
this gift you won't hide
this scene that were in together
the story of our lives
broken, lover
tears flow, endless rivers
one love,one heart
still we won't sever

could I be so affected 
will I stay on your mind
why am I so infected
the way that we shine
twisting,turning
as we move further
my own prayer
we will both emerge

you and I step into the line
I'm so grace
that I have this.
Comments