Chicosci - Most Precious And Hopeless Chords & Tabs

 

Most Precious And Hopeless Chords & Tabs

Chicosci Chords & Tabs

Version: 1 Type: Bass Tab 0 ratings
1 star 2 stars 3 stars 4 stars 5 stars
comments

Most Precious And Hopeless Bass Tab

   
Song:	Most Precious and Hopeless
Band: Chicosci
Album: Method of Breathing

whole-step down, then dropped D (F,C,G,C)

intro/verse:
----------------------------------------------------------------------|
----------------------------------------------------------------------|
----5/7-----3--------5------------------------------------------------|
-----------------5--------0-------------------------------------------|

chorus:
----------------------------------------------------------------------|
----------------------------------------------------------------------|
----------------------------------------------------------------------|
----00--33--7----333--5511-------------------------------------------|
[ Tab from: http://www.guitartabs.cc/tabs/c/chicosci/most_precious_and_hopeless_btab.html ]
bridge:
------------------------------|---------------------------------------|
------------------------------|---------------------------------------|
------------------------------|-------------pause---------------------|
----000000000000000...--------|---------------------------------------|

----------------------------------------------------------------------|
------------------------------------------------------play-this-------|
------------------------------------------------------many-times------|
----8--7--6--8--7--6--8--7--6--8--7--6--8--7--6-----------------------|

yon lang!..npakasimple...ewan ko n lang kapg hndi mo pa ma-gets yan!!
Kpag my reklamo ka, e2:
jeph_30@yahoo.com o kya 09272212013...
kung cno man ang meron ng icarus, gawan nyo nman ng tab!!!...ska phram na rin!!
Comments