Chicosci - Liar Chords & Tabs

 

Liar Chords & Tabs

Chicosci Chords & Tabs

Version: 1 Type: Tab 0 ratings
1 star 2 stars 3 stars 4 stars 5 stars
comments

Liar Tab

                            "LIAR"BY CHICOSCI
                         transcribed by:freongang
                     visit me at:freongang_81@yahoo.com
                          freongang_08@yahoo.com
 
       NOTE: FOR THOSE WHO EMAIL ME AND REQUESTING FOR TABS...
                 "PUTANG INA SALAMAT SA TIWALA NYO?!?!"
 
[ Tab from: http://www.guitartabs.cc/tabs/c/chicosci/liar_tab.html ]
Tuning:dropped D
 intro:   X5               then proceed here
 |----------------------  -------------------|
 |----------------------  -------------------|
 |----------------------  -------------------|
 |----------------------  -------------------|
 |---9---8---7---6---6--  ---9---8---7---6---|
 |-7---6---5---4---4---4 -7---6---5---4-----|
 
 drop that ball...  X8
 |----------------------------|
 |----------------------------|
 |----------------------------|
 |------7/6-------------------|
 |------5/4------3h5----------|
 |--0-0------5-5-----5--3--0--|

 hey the girl... X4
 |------------------------------|
 |------------------------------|
 |------------------------------|
 |--------5h6-------3h4---------|
 |------------------------------|
 |---0-5--------0-3-------------|
  
 why do you have...  X4          W/WAH 
 |--9---9--12----12--------  -----------------|
 |----7-------10-----------  -----------------|
 |-------------------------  -----------------|
 |-------------------------  -----------------|
 |-------------------------  ---9---8---7---6-|
 |-------------------------  -7---6---5---4---|

  lie to me... x8 (use an effects here)
 |---------------------------------------|
 |---------------------------------------|
 |---------------------------------------|
 |--5h4-5h6-5h4-5h6-5h4h3----------------|
 |---------------------------------------|
 |---------------------------------------|

          <<<>>>
Comments