Chicosci - Glass Is Broken Chords & Tabs

 

Glass Is Broken Chords & Tabs

Chicosci Chords & Tabs

Version: 1 Type: Bass Tab 0 ratings
1 star 2 stars 3 stars 4 stars 5 stars
comments

Glass Is Broken Bass Tab

   
Song: Glass Is Broken
Band: Chicosci
Album: Method of Breathing

dis one is d best song 4 me in their album method of breathing...astig..i'm not a bass 
pero gumawa ako ng tab n2...

whole step down, then dropped D (F,C,G,C)

intro:
----------------------------------------------------------------------|
----------------------------------------------------------------------|
----------------------------------------------------------------------|
----00--32-----------------------------------------------------------|

verse:
----------------------------------------------------------------------|
----------------------------------------------------------------------|
----------------------------------------------------------------------|
----00--3--2--00------------------------------------------------------|

pre-chorus:
-------------------|------------|----------------|--------------------|
-------------------|------------|----------------|--------------------|
--------------(4x)-|------------|-----------(4x)-|--------------------|
----00--3--2-------|-8888888...-|--00--3--2------|-888888...----------|
[ Tab from: http://www.guitartabs.cc/tabs/c/chicosci/glass_is_broken_btab.html ]
chorus:
----------------------------------------------------------------------|
----------------------------------------------------------------------|
----------------------------------------------------------------------|
----0---00--3--3---8---8--8--8----------------------------------------|

bridge:
----------------------------------------------------------------------|
----------------------------------------------------------------------|
-------------1--0-----------------------------------------------------|
----0--2--3--------3--0-----------------------------------------------|

-------------------|--------------------------------------------------|
-------------------|--------------------------------------------------|
----5--------------|-5--555555----------------------------------------|
--------7---5---7--|------------7--777777--5--555555--7777777--------|

----------------------------------------------------------------------|
----------------------------------------------------------------------|
----------------------------------------------------------------------|
----88888888888...----10101010101010...-------------------------------|

end with:
----------------------------------------------------------------------|
----------------------------------------------------------------------|
-------------1--0-----------------------------------------------------|
----0--2--3--------3--------------------------------------------------|

**********************************************************************
Comments