Chicosci - Dim Chords & Tabs

 

Dim Chords & Tabs

Chicosci Chords & Tabs

Version: 2 Type: Tab 0 ratings
1 star 2 stars 3 stars 4 stars 5 stars
comments

Dim Tab

                          "DIM"BY CHICOSCI
                       transcribed by:freongang
                   visit me at freongang_81@yahoo.com  
                        freongang_8@yahoo.com


Tuning: dropped D
 intro:   X4   w/little bit of phaser
 |--------------------------------|
 |---5-5--9-9--1-1--7-7--6-6------|
 |--------------------------------|
 |--------------------------------|
 |--------------------------------|
 |--------------------------------|
 
  who wants to tell me...(as many times)
 |--------------------------------------------|
 |--------------------------------------------|
 |--------------------------------------------|
 |--------------------------------------------|
 |--5-5-5-5-9-9-9-9-1-1-1-1-7-7-7-7-6-6-6-6---|
 |--------------------------------------------|
[ Tab from: http://www.guitartabs.cc/tabs/c/chicosci/dim_tab_ver_2.html ]
 |-----------------------------------------------|
 |-----------------------------------------------|
 |-----------------------------------------------|
 |-5-5-5-5--5-5--5-5-5-5--5-5-5--5-5-5-5--5-5----|
 |-5-5-5-5--5-5--5-5-5-5--5-5-5--5-5-5-5--5-5----|
 |-3-3-3-3--3-3--3-3-3-3--3-3-3--3-3-3-3--3-3----|
 
 don't try to save me....
 |----------------------------------------------------------------|
 |----------------------------------------------------------------|
 |--7--11--3----7--11--3------5-5-5-5--5-5--5-5-5-5--5-5-5-5--5-5-|
 |--7--11--3----7--11--3------5-5-5-5--5-5--5-5-5-5--5-5-5-5--5-5-|
 |--5--9---1----5--9---1------3-3-3-3--3-3--3-3-3-3--3-3-3-3--3-3-|
 |----------------------------------------------------------------|

 |-------------------------------|
 |-------------------------------|
 |-7--11--3-----7--11--3---------|
 |-7--11--3-----7--11--3---------|
 |-5--9---1-----5--9---1---------|
 |-------------------------------|
               
           X2
 |------------------------------------------------------------------|
 |------------------------------------------------------------------|
 |-7-7-7-7-x-x-11-11-11-11-x-x-3-3-3-3-x-x-9-9-9-9-x-x-8-8-8-8-x-x--|
 |-7-7-7-7-x-x-11-11-11-11-x-x-3-3-3-3-x-x-9-9-9-9-x-x-8-8-8-8-x-x--|
 |-5-5-5-5-x-x-9--9--9--9--x-x-1-1-1-1-x-x-7-7-7-7-x-x-6-6-6-6-x-x--|
 |------------------------------------------------------------------|
 
   don't no, save me...  X2
 |------------------------------------------------------------|
 |----------11-------------9---------11---------9---------11--|
 |-7-7-7-7-----11-11-11-11---3-3-3-3----9-9-9-9---8-8-8-8-----|
 |-7-7-7-7-----11-11-11-11---3-3-3-3----9-9-9-9---8-8-8-8-----|
 |-5-5-5-5-----9--9--9--9----1-1-1-1----7-7-7-7---6-6-6-6-----|
 |------------------------------------------------------------|

              
           X2
 |----------------------------------------------|
 |----------------------------------------------|
 |-7-7-7-7-11-11-11-11-3-3-3-3-9-9-9-9-8-8-8-8--|
 |-7-7-7-7-11-11-11-11-3-3-3-3-9-9-9-9-8-8-8-8--|
 |-5-5-5-5-9--9--9--9--1-1-1-1-7-7-7-7-6-6-6-6--|
 |----------------------------------------------|

            <<<>>>
Comments