Chicosci - Cold Chords & Tabs

 

Cold Chords & Tabs

Chicosci Chords & Tabs

Version: 1 Type: Tab 0 ratings
1 star 2 stars 3 stars 4 stars 5 stars
comments

Cold Tab

                          "COLD"BY CHICOSCI
                       transcribed by:freongang
                   visit me at:freongang_81@yahoo.com       
                        freongang_08@yahoo.com

          NOTE: FOR THOSE WHO EMAIL ME AND REQUESTING FOR TABS...
                   "PUTANG INA SALAMAT SA TIWALA NYO?!?!"  

Tuning:dropped D
 
  intro: X6
 |------------------------------------------|
 |------------------------------------------|
 |------------------------------------------|
 |-7-7-7-7-7-7-8-8-8-8-5-5-5-5-7-7-7-7------|
 |-5-5-5-5-5-5-6-6-6-6-3-3-3-3-5-5-5-5------|
 |------------------------------------------|
[ Tab from: http://www.guitartabs.cc/tabs/c/chicosci/cold_tab.html ]
             X4
 |------------------------------------------|
 |------------------------------------------|
 |-7-x-7-7-7-7-8--5--7----------------------|
 |-7-x-7-7-7-7-8--5--7----------------------|
 |-5-x-5-5-5-5-6--3--5----------------------|
 |------------------------------------------|
   
  i try to fight... 
 |---------10-10-10-12-12-12-9-9-9-10-10-10------|
 |-----------------------------------------------|
 |--9-9-9----------------------------------------|
 |-----------------------------------------------|
 |-----------------------------------------------|
 |-----------------------------------------------|
  no i can't find the reason why... X4
 |-----------------------------------|
 |-----------------------------------|
 |--8---5---7-8-5-7------------------|
 |--8---5---7-8-5-7------------------|
 |--6---3---5-6-3-5------------------|
 |-----------------------------------|

 final riff
  why do i feel this way... X8 
 |-----------------------------------|
 |-----------------------------------|
 |-----------------------------------|
 |----9--5--7--4-4-------------------|
 |----9--5--7--4-4-------------------|
 |----7--3--5--2-2-------------------|

               <<<>>>
Comments