Chicago - Wishing You Were Here Chords & Tabs

 

Wishing You Were Here Chords & Tabs

Chicago Chords & Tabs

Version: 1 Type: Bass Tab 0 ratings
1 star 2 stars 3 stars 4 stars 5 stars
comments

Wishing You Were Here Bass Tab

   
-----------------------------------------------------------------------------
                       WISHING YOU WERE HERE - Chicago
-----------------------------------------------------------------------------

Tabbed by: Matt Broback
E-mail: 37hambone@gmail.com

Tuning: E A D G

. = accent note

INTRO
|----------|
|:--------:|
|:--------:|
|----------|

|7-------|7-------|7-------|--------|----7---|----7---|----7---|---------|
|--------|--------|--------|------5-|--------|--------|--------|---------|
|--------|--------|--------|5-7-8---|5-------|5-------|5-------|5---.----|
|--------|--------|--------|--------|--------|--------|--------|----56-88|


VERSE 1
|--------|--------|---------|---------|--------|------/2-|----5---|--------|
|7-------|--------|---------|---------|7-------|--------3|5-------|--------|
|--0-5-4-|5----0--|-----3---|5---.----|--7-5-4-|5--------|-------3|5---5--0|
|--------|------31|3--3/----|----56-8-|--------|---------|--------|--------|


CHORUS 1                                                                       
|-----7-7--------|-----7-77-------|7----7-77-------|--------|
|----------------|----------------|----------------|------5-|
|5-------5-------|5--------------5|----------------|5-7-8---|
|----------------|----------------|----------------|--------|

|-----7-7--------|--------7-------|-----7--7-------|---------|
|----------------|----------------|----------------|---------|
|5-------5-------|5------5--------|5---------------|5---.----|
|----------------|----------------|----------------|----56-88|


VERSE 2
|--------|---------|--------|-----------------|
|7-------|---------|--------|-----------------|
|--0-5-4-|5-0------|----3-0-|5------.-58--7108|
|--------|----/3-1-|3-------|-------56--68----|

|--------|---------754----|--------|--------|
|7-------|----7-------7---|--------|--------|
|--0-5-4-|5------------5--|----3---|5-------|
|--------|--------------54|3-------|--------|


CHORUS 2
|------7-7----7-7|------7-77------|------7-77------|----------------|
|----------------|---------------7|----------------|------------5---|
|5--------5------|5---------------|5---------------|5---7-----8-----|
|----------------|----------------|----------------|----------------|
[ Tab from: http://www.guitartabs.cc/tabs/c/chicago/wishing_you_were_here_btab.html ]
|7-----7-77------|------7-77------|------7-77------|----------------|
|----------------|----------------|----------------|----------------|
|----------------|5---------------|5---------------|5--------5503---|
|----------------|----------------|----------------|----------------|


BREAK             ss      ss                         ss
|----------|---------|---------|--------|---------|---------|--------|
|----------|---------|---------|--------|--.------|--23-----|--------|
|1-11/3-33/|5-3-1-1--|----1----|--------|1-2353-57|5---31-0-|---01-34|
|----------|-------3-|1-1--1-1-|1-1-1-1-|---------|--------3|1-3-----|


CHORUS 3
|------7-77---7-7|-----7-77----7-7|-----7-77-------|----------------|
|----------------|----------------|----------------|----.---.---.555|
|5---------------|5---------------|5---------------|5555577778888---|
|----------------|----------------|----------------|----------------|

|-----7-7--------|--------7-------|-----7-77-------|--------|
|----------------|----------------|----------------|--------|
|5-------5-------|5---------------|5---------------|5-5-----|
|----------------|----------------|----------------|----6-88|


VERSE 3
|--------|--------|--------|----------------|
|7-------|--------|--------|----------------|
|--0-5-4-|5----0--|----3--3|5--------58-----|
|--------|------31|3--3----|-------56--68-8-|

                                         ss
|----------------|--------|--------|---------|
|----------------|--------|--------|-----56--|
|7--70-005--54-44|5-----0-|----3--4|5---5--53|
|----------------|-----1-4|3--3----|---------|

        ss
|---------|----------------|--------|
|---------|----------------|--------|
|1--13--34|5---5------05030|1--13--3|
|---------|----------------|--------|


OUTRO
|-----7-7--------|-----7-77----7-7|-------77-------|----------------|
|----------------|----------------|--------------53|----.---.---.555|
|5-------5-------|5---------------|5---------------|5555577778888---|
|----------------|----------------|----------------|----------------|

|-----7-7---------|7-------|-----7-7--------|-------/7--------|--------|--------|
|----------5-3----|--------|----------------|----7------------|--------|--------|
|5-------5-----7-5|--------|5---------------|5-----0--5~~~~~~~|~~~~~~~~|~~~~~~~~|
|-----------------|--------|----------------|-----------------|--------|--------|
Comments