Chicago - South California Purples Chords & Tabs

 

South California Purples Chords & Tabs

Chicago Chords & Tabs

Version: 1 Type: Tab 0 ratings
1 star 2 stars 3 stars 4 stars 5 stars
comments

South California Purples Tab

      Part One-
e:-----------------------------|
B:-----------------------------|
G:-----------------------------|
D:-------------------3----3-3--|
A:--0---3---4---5-5------------|
E:-----------------------------|


e:-----------------------------|
B:-----------------------------|
G:-----------------------------|
D:-------------------3----3-3--|
A:--0---3---4---5-5------------|
E:-----------------------------|


[ Tab from: http://www.guitartabs.cc/tabs/c/chicago/south_california_purples_tab.html ]
       Part Two-
e:-----------------------------|
B:-----------------------------|
G:-------------------3----3-3--|
D:--0---3---4---5-5------------|
A:-----------------------------|
E:-----------------------------|


e:-----------------------------|
B:-----------------------------|
G:-------------------3----3-3--|
D:--0---3---4---5-5------------|
A:-----------------------------|
E:-----------------------------|


*/\/\/\/\/\/\/\/\/\/\/\/\/\/\/\*

Part One played four times, then part two is played once.
 This pattern repeats 3 times through the song.


                    ..::Rock On!::..

            Tabbed By Bryan 'Token' Kael
Comments