Chicago - Sing A Mean Tune Kid Chords & Tabs

 

Sing A Mean Tune Kid Chords & Tabs

Chicago Chords & Tabs

Version: 1 Type: Tab

Sing A Mean Tune Kid Tab

   
Sing A Mean Tune Kid - Chicago - Chicago III
Main Riff
Use with wah wah pedal
Jigga Blah

     S  S E  E  E  H            S  S E  E  E  E  E  Q     
E||-------------3--L\--------|-------------------6--L----|
B||-------------3--L\--------|-------------------6--L----|
G||-------------0--L---------|---------------------------|
D||--------------------------|---------------------------|
A||--3h-5-3------------------|--3h-5-3-------------------|
E||----------3---------------|----------0--1--2----------|

[ Tab from: http://www.guitartabs.cc/tabs/c/chicago/sing_a_mean_tune_kid_tab.html ]
  S  S E  E  Q    S S Q       S  S E  E  E  E  E  Q      
-------------6----x-x-6----|-------------------6--L----||
-------------7----x-x-7----|-------------------6--L----||
---------------------------|---------------------------||
---------------------------|---------------------------||
--3h-5-3-------------------|--3h-5-3-------------------||
----------3----------------|----------0--1--2----------||




Duration Legend
---------------
H - half
Q - quarter
E - 8th
S - 16th


Tablature Legend
----------------
L - tied note
x - dead note
g - grace note
h - hammer on
\ -  slide into from above or out of downwards