Chevelle - Wonder Whats Next Chords & Tabs

 

Wonder Whats Next Chords & Tabs

Chevelle Chords & Tabs

Version: 3 Type: Tab 0 ratings
1 star 2 stars 3 stars 4 stars 5 stars
comments

Wonder Whats Next Tab

   
Chevelle - Wonder What's Next

I tabbed this by ear because I love this song and I have seen other tabs that are 
wrong. I am positive that the whole song is right. I listened to the song for hours to tab 
ENJOY!

Drop-D tuning

DADGBe
Low to High

Into:
D----0-5-6--0-6-5--0-5-0-5-6--0-6-5--0-3------------------------|
A----0-5-6--0-6-5--0-5-0-5-6--0-6-5--0-3------------------------|
D----0-5-6--0-6-5--0-5-0-5-6--0-6-5--0-3------------------------|
G---------------------------------------------------------------| x4
B---------------------------------------------------------------|
e---------------------------------------------------------------|


then here it gets kind-of complicated,the bass keeps on playing the above riff on the 
D string, then, to make the sound Pete makes, just run your fingers up and down frets 3-9 
touching them to create a sort-of helicopter noice then repeat:

D----0-5-6--0-6-5--0-5-0-5-6--0-6-5--0-3------------------------|
A----0-5-6--0-6-5--0-5-0-5-6--0-6-5--0-3------------------------|
D----0-5-6--0-6-5--0-5-0-5-6--0-6-5--0-3------------------------|
G---------------------------------------------------------------| x8
B---------------------------------------------------------------|
e---------------------------------------------------------------|


  It sometimes feels like a burden...
D-5-5-5-5-5----9-10-9----5-5-5-5-5----9-10-9---------------|
A-5-5-5-5-5----9-10-9----5-5-5-5-5----9-10-9---------------|
D-5-5-5-5-5----9-10-9----5-5-5-5-5----9-10-9---------------|
G-5-5-5-5-5----9-10-9----5-5-5-5-5----9-10-9---------------| x3
B----------------------------------------------------------|
e----------------------------------------------------------|


DRUM PART

D----0-5-6--0-6-5--0-5-0-5-6--0-6-5--0-3------------------------|
A----0-5-6--0-6-5--0-5-0-5-6--0-6-5--0-3------------------------|
D----0-5-6--0-6-5--0-5-0-5-6--0-6-5--0-3------------------------|
G---------------------------------------------------------------| x4
B---------------------------------------------------------------|
e---------------------------------------------------------------|


  More and more it's inevitable...
D-5-5-5-5-5----9-10-9----5-5-5-5-5----9-10-9---------------|
A-5-5-5-5-5----9-10-9----5-5-5-5-5----9-10-9---------------|
D-5-5-5-5-5----9-10-9----5-5-5-5-5----9-10-9---------------|
G-5-5-5-5-5----9-10-9----5-5-5-5-5----9-10-9---------------| x3
B----------------------------------------------------------|
e----------------------------------------------------------|


DRUM PART

In the beggining it seems that no one thinks beyond having fun...
D----0-5-6--0-6-5--0-5-0-5-6--0-6-5--0-3----------------------------|
A-------------------------------------------------------------------|
D-------------------------------------------------------------------|
G-------------------------------------------------------------------| x8
B-------------------------------------------------------------------|
e-------------------------------------------------------------------|

[ Tab from: http://www.guitartabs.cc/tabs/c/chevelle/wonder_whats_next_tab_ver_3.html ]
Then Joe (bass) plays something while Pete says "We play the blaming game..." then he 
to scream:

  We play the blaming game!...Yes I mind...It's not your turn
D-5-5-5-5-5----9-10-9----5-5-5-5-5----9-10-9---------------|
A-5-5-5-5-5----9-10-9----5-5-5-5-5----9-10-9---------------|
D-5-5-5-5-5----9-10-9----5-5-5-5-5----9-10-9---------------|
G-5-5-5-5-5----9-10-9----5-5-5-5-5----9-10-9---------------| x4
B----------------------------------------------------------|
e----------------------------------------------------------|


                                        I wonder.....
D----0-5-6--0-6-5--0-5-0-5-6--0-6-5--0-3------------------------|
A----0-5-6--0-6-5--0-5-0-5-6--0-6-5--0-3------------------------|
D----0-5-6--0-6-5--0-5-0-5-6--0-6-5--0-3------------------------|
G---------------------------------------------------------------| x2
B---------------------------------------------------------------|
e---------------------------------------------------------------|

                                        I wonder.....
D----0-5-6--0-6-5--0-5-0-5-6--0-6-5--0-3------------------------|
A----0-5-6--0-6-5--0-5-0-5-6--0-6-5--0-3------------------------|
D----0-5-6--0-6-5--0-5-0-5-6--0-6-5--0-3------------------------|
G---------------------------------------------------------------| x2
B---------------------------------------------------------------|
e---------------------------------------------------------------|


 What's next
D----0-5-6--0-6-5--0-5-0-5-6--0-6-5--0-3------------------------|
A----0-5-6--0-6-5--0-5-0-5-6--0-6-5--0-3------------------------|
D----0-5-6--0-6-5--0-5-0-5-6--0-6-5--0-3------------------------|
G---------------------------------------------------------------| x5
B---------------------------------------------------------------|
e---------------------------------------------------------------|

  We play the blaming game...Yes I mind...It's not your turn
D-5-5-5-5-5----9-10-9----5-5-5-5-5----9-10-9---------------|
A-5-5-5-5-5----9-10-9----5-5-5-5-5----9-10-9---------------|
D-5-5-5-5-5----9-10-9----5-5-5-5-5----9-10-9---------------|
G-5-5-5-5-5----9-10-9----5-5-5-5-5----9-10-9---------------| x5
B----------------------------------------------------------|
e----------------------------------------------------------|


  We play the blaming game!... YES I MIND...IT's NOT YOUR TURN
D-5-5-5-5-5----9-10-9----5-5-5-5-5----9-10-9---------------|
A-5-5-5-5-5----9-10-9----5-5-5-5-5----9-10-9---------------|
D-5-5-5-5-5----9-10-9----5-5-5-5-5----9-10-9---------------|
G-5-5-5-5-5----9-10-9----5-5-5-5-5----9-10-9---------------| x5
B----------------------------------------------------------|
e----------------------------------------------------------|


  We play the blaming game!... YES I MIND...IT's NOT YOUR TURN
D-5-5-5-5-5----9-10-9----5-5-5-5-5----9-10-9---------------|
A-5-5-5-5-5----9-10-9----5-5-5-5-5----9-10-9---------------|
D-5-5-5-5-5----9-10-9----5-5-5-5-5----9-10-9---------------|
G-5-5-5-5-5----9-10-9----5-5-5-5-5----9-10-9---------------| x8
B----------------------------------------------------------|
e----------------------------------------------------------|


Any problems? E-Mail me at Flameraider@msn.com I'd be glad to help!
Comments