Chevelle - Vitamin R Leading Us Along Chords & Tabs

 

Vitamin R Leading Us Along Chords & Tabs

Chevelle Chords & Tabs

Version: 8 Type: Tab 0 ratings
1 star 2 stars 3 stars 4 stars 5 stars
comments

Vitamin R Leading Us Along Tab

-----------------------------------------------------------------------------
                          Chevelle - Vitamin R
-----------------------------------------------------------------------------

Artist: Chevelle
Song Title: Vitamin R
Tabbed by: Zeroisgreatman
Tunning: Standard E, EADGBE

You know, it's a pain in the arse to buy a set of thick strings, that will ruin your
nut, just to down tune your guitar just to play this song.
That's why instead of the other 5 people who copied off of other tabs, I present to
you, a mock tab if you will, to play the song in standard E tunning.  The only thing
open b guarrenties you is a slilghtly easier way of playing the song, and a thicker
sound, nothing else really.  So all of you that like playing in standard tunning,
Enjoy.

Intro/Fill/Outro:
[This isn't really clean or distorted, rather, a somewhat dirty clean tone, with some delay]
e|----------------------|
B|----------------------|
G|-6-6-6-6-6--4-4-4-4-4-|
D|-6-6-6-6-6--4-4-4-4-4-|
A|-4-4-4-4-4--2-2-2-2-2-|
E|----------------------|

Verse:
e|----------------------------------------------|
B|----------------------------------------------|
G|----------------------------------------------|
D|-4-------4-------4-------4-------4-------4--2-|
A|-2-2-2-0-2-2-2-0-2-2-2-0-2-2-0-2-2-2-2-0-2--0-|
E|----------------------------------------------|
  |-------------------p.m------------------|
[ Tab from: http://www.guitartabs.cc/tabs/c/chevelle/vitamin_r_leading_us_along_tab_ver_8.html ]
e|----------------------------------------------|
B|----------------------------------------------|
G|----------------------------------------------|
D|----------------------------------------------|
A|-5-------5-------5-------5-------5-------5--7-|
E|-3-3-3-0-3-3-3-0-3-3-3-0-3-3-3-0-3-3-3-0-3--5-|
  |-----------------p.m.-------------------|

Pre-Chorus: "He's Alone..."
e|--------------------------------|
B|--------------------------------|
G|-4-4-4-4-4-4--------------------|
D|-4-4-4-4-4-4--------------------|
A|-2-2-2-2-2-2--5-5-5-5-5-5-5-5-5-|
E|-2-2-2-2-2-2--3-3-3-3-3-3-3-3-3-|
  |------------p.m.--------------|

Chorus:
e|----------------------------------------------------------|
B|----------------------------------------------------------|
G|------12-12-12---------9-9-9---------12-12-12-------9-9-9-|
D|-------x--x--x---------x-x-x----------x--x--x-------x-x-x-|
A|-5-5--10-10-10--5-5-5--7-7-7-7--2-2--10-10-10--2-2--7-7-7-|
E|-3-3------------3-3-3--------5--0-0------------0-0--------|

Bridge: "Thinking it over, and over..."
e|-----------------------------------------------------|
B|-----------------------------------------------------|
G|-----------------------------------------------------|
D|-----------------------------------------------------|
A|-5-5-5-5-5-5--7-7-7-7-7-7--9-9-9-9-9-9-9-9-9-9-9-9-9-|
E|-3-3-3-3-3-3--5-5-5-5-5-5--7-7-7-7-7-7-7-7-7-7-7-7-7-|
                             .     .     .     .     .

That's about it.  For the distortion, I recomend just setting a pod to a high
recaborated setting like a mesa boogie amp or something, or a metal distortion,
whichever can simulate the thick saturated distortion the best for you.

=============================================================================
Comments