Chevelle - Vitamin R Leading Us Along Chords & Tabs

 

Vitamin R Leading Us Along Chords & Tabs

Chevelle Chords & Tabs

Version: 7 Type: Tab 0 ratings
1 star 2 stars 3 stars 4 stars 5 stars
comments

Vitamin R Leading Us Along Tab

   
-------------------------------------------------------------------------------
			      "Vitamin R (Leading Us Along)" by Chevelle
-------------------------------------------------------------------------------
Tabbed by: pod4477
Email: pod4477@comcast.net

All the other tabs were wrong.  I played through this 
song and revised it, so it should be close to correct

Tuning: Drop B Tuning (Low to High):  B, F#, B, E, G#, C#

Palm Mutes are indicted with a (*)

Intro:

C#||----------------------------------||
G#||----------------------------------||
E ||---9-9-9-9-9-9--/--7-7-7-7-7-7-\--||
B ||---x-x-x-x-x-x--/--x-x-x-x-x-x-\--||
F#||---7-7-7-7-7-7--/--5-5-5-5-5-5-\--||
B ||----------------------------------||   2X

Verse:

C#||---------------------------------------||
G#||---------------------------------------||
E ||---10-10-10-10-10-10-/--9-9-9-9-9-9-\--||
B ||---x--x--x--x--x--x--/--x-x-x-x-x-x-\--||
F#||---8--8--8--8--8--8--/--7-7-7-7-7-7-\--||
B ||---------------------------------------||
       *  *  *  *  *  *     * * * * * *

Pre-Chorus:

C#||--------------------------------|-------------------------------||
G#||--------------------------------|-------------------------------||
E ||--------------------------------|-------------------------------||
B ||--------------------------------|-------------------------------||
F#||--------------------------------|-------------------------------||
B ||--0-0-0-0-0---3-3-3-3----------|-0-0-0-0---5-5-5-5---3-3-3-3-3-||
      * * * * *   * * * *             * * * *   * * * *   * * * * *


Chorus 1:

C#||----------12----------------------------------12-------||
G#||----------x-----------------------------------x--------||
E ||----------9-----------------------------------9--------||
B ||--8-8-8-/-------------8-8-8h--10-10---55-5-/----------||
F#||--8-8-8-/-------------8-8-8h--10-10---55-5-/----------||
B ||--8-8-8-/-------------8-8-8h--10-10---5-5-5-/----------||


C#||--------------------------------------------||
G#||--------------------------------------------||
E ||--------------------------------------------||
B ||--5-5-5-5h---3-3--0----------0--------------||
F#||--5-5-5-5h---3-3--0----------0--------------||
B ||--5-5-5-5h---3-3--0----------0--------------||
                      Hold Note  Hold Note again


Play Intro starting at the first open chord at the end of the chorus

Play Verse

Then Play Pre-Chorus

then

Chorus 2:

C#||-----------12-------------------------------12-----||
G#||-----------x--------------------------------x------||
E ||-----------9--------------------------------9------||
B ||--8-8--8-/--------8-8-8h--10-10---55-5-/----------||
F#||--8-8--8-/--------8-8-8h--10-10---55-5-/----------||
B ||--8-8--8-/--------8-8-8h--10-10---5-5-5-/----------||


C#||-------------------||
G#||-------------------||
E ||-------------------||
B ||--5-5-5-5h---3-3---||
F#||--5-5-5-5h---3-3---||
B ||--5-5-5-5h---3-3---||


Bridge:
[ Tab from: http://www.guitartabs.cc/tabs/c/chevelle/vitamin_r_leading_us_along_tab_ver_7.html ]
C#||-------------------------------------------------------------------||
G#||-------------------------------3--------3--------3--------3--------||
E ||-------------------------------2--------2--------2--------2--------||
B ||--3--3--3--3---\--55-5-5--\---0--0-0---0-0-0---0---0-0--0--0-0--||
F#||--3-3--3--3---\--55-5-5--\------0-0------0-0-------0-0------0-0--||
B ||--3--3--3--3---\--5-5-5-5--\------0-0------0-0-------0-0------0-0--||
                                      * *      * *       * *      * *



C#||-----------------------------------------------------------------||
G#||-----------------------------3--------3--------3--------3--------||
E ||-----------------------------2--------2--------2--------2--------||
B ||--8--8--8--8--\--55-5-5--\--0--0-0---0-0-0---0---0-0--0--0-0--||
F#||--8-8--8--8--\--55-5-5--\-----0-0------0-0-------0-0------0-0--||
B ||--8--8--8--8--\--5-5-5-5--\-----0-0------0-0-------0-0------0-0--||
                                    * *      * *       * *      * *

Last time of bridge:

C#||----------------------------------------------------------------------||
G#||----------------------------------------------------------------------||
E ||----------------------------------------------------------------------||
B ||--8--8--8--8--\--55-5-5--\-----0------------0-0-0-0-0-0-0-0-0-0-0-0--||
F#||--8-8--8--8--\--55-5-5--\-----0------------0-0-0-0-0-0-0-0-0-0-0-0--||
B ||--8--8--8--8--\--5-5-5-5--\-----0------------0-0-0-0-0-0-0-0-0-0-0-0--||
                                    Hold Chord     * * * * * * * * * * *



Fill 1:

C#||----------------------------------||
G#||----------------------------------||
E ||---9-9-9-9-9-9--/--7-7-7-7-7-7-\--||
B ||---x-x-x-x-x-x--/--x-x-x-x-x-x-\--||
F#||---7-7-7-7-7-7--/--5-5-5-5-5-5-\--||
B ||----------------------------------||   2X

Play the Fill right at the open chord at the end of the bridge.


Then Play Chorus 3 once more after the last Palm Mute in the Bridge
Chorus 3:

C#||----------12--------------------------------12-------||
G#||----------x---------------------------------x--------||
E ||----------9---------------------------------9--------||
B ||--8-8-8-/----------8-8-8h--10-10---55-5-/-----------||
F#||--8-8-8-/----------8-8-8h--10-10---55-5-/-----------|| Part 1
B ||--8-8-8-/----------8-8-8h--10-10---5-5-5-/-----------||


C#||-----------------||
G#||-----------------||
E ||-----------------||
B ||--5-5-5-5h---3-3-||
F#||--5-5-5-5h---3-3-||
B ||--5-5-5-5h---3-3-||Part 2


Play part 1 and 2 for three times then play Fill 2 on the forth time.

Fill 2
C#||------------------------------------||
G#||------------------------------------||
E ||------------------------------------||
B ||--5-5-5-5h---3-3--0-----------------||
F#||--5-5-5-5h---3-3--0-----------------||
B ||--5-5-5-5h---3-3--0-----------------||
                      End on this chord

Play Fill 1 on the last open chord


| /  slide up
| \  slide down
| h  hammer-on
| p  pull-off
| ~  vibrato
| +  harmonic
| *  Palm Mute note
===============================================================================
Comments