Chevelle - Vitamin R Leading Us Along Chords & Tabs

 

Vitamin R Leading Us Along Chords & Tabs

Chevelle Chords & Tabs

Version: 4 Type: Tab 0 ratings
1 star 2 stars 3 stars 4 stars 5 stars
comments

Vitamin R Leading Us Along Tab

   
I saw the other tabs for this song on UG and didnt think they were very good so i
decided to tab it out. Im not sure whether its 100% but i think it sounds pretty
close to the song.

Drop B Tuning :  B F# B E G# C#

Intro: Light Distortion

C#||---0-0-0-0-0-0--\--0-0-0-0-0-0----||
G#||---5-5-5-5-5-5--\--3-3-3-3-3-3----||
E ||---9-9-9-9-9-9--\--7-7-7-7-7-7-\--||
B ||---x-x-x-x-x-x-----x-x-x-x-x-x-\--||
F#||---7-7-7-7-7-7--\--5-5-5-5-5-5-\--||
B ||---0-0-0-0-0-0--\--0-0-0-0-0-0----||

Verses: Heavy Distortion, main riff almost the same as intro, palm mute all strings
until you get past the main riff and this part comes, then kick back in the distortion
when you go back to the main riff.
[ Tab from: http://www.guitartabs.cc/tabs/c/chevelle/vitamin_r_leading_us_along_tab_ver_4.html ]
C#||---0-0-0-0-0-0--\--0-0-0-0-0-0----|--------------------------------||
G#||---5-5-5-5-5-5--\--3-3-3-3-3-3----|----10-------8---------6--------||
E ||---9-9-9-9-9-9--\--7-7-7-7-7-7-\--|----14-------12--------10-------||
B ||---x-x-x-x-x-x-----x-x-x-x-x-x-\--|----x--------x---------x--------||
F#||---7-7-7-7-7-7--\--5-5-5-5-5-5-\--|----12-------10--------8--------||
B ||---0-0-0-0-0-0--\--0-0-0-0-0-0----|----0--------0---------0--------||


Pre-Chorus (this is not exact)

C#||----------------------------------||
G#||----------------------------------||
E ||----------------------------------||
B ||---0-0-0-0-0-3-3-3-3-5-5-5-5-5-5--||
F#||---0-0-0-0-0-3-3-3-3-5-5-5-5-5-5-\||
B ||---0-0-0-0-0-3-3-3-3-5-5-5-5-5-5--||

Chorus

C#||-------------|---------------------||
G#||--10--10--10-|----000-----000------||
E ||--14--14--14-|----444-----444------||
B ||--x---x---x--|888-----888----------||
F#||--12--12--12-|888-----888----------||
B ||--0---0---0--|888-----888----------||

C#||------------------------------------------------------------||
G#||----------------------------000-----------000---------------||
E ||----------------------------444-----------444---------------||
B ||---3-3-3-3/5-5-5-0-0-0-0-0------0-0-0-0-------0-0-0-0-------||
F#||---3-3-3-3/5-5-5-0-0-0-0-0------0-0-0-0-------0-0-0-0-------||
B ||---3-3-3-3/5-5-5-0-0-0-0-0------0-0-0-0-------0-0-0-0-------||


you can figure out the rest for yourselves!!! (i will finish when the record comes out)
Comments