Chevelle - Vitamin R Leading Us Along Chords & Tabs

 

Vitamin R Leading Us Along Chords & Tabs

Chevelle Chords & Tabs

Version: 2 Type: Tab 0 ratings
1 star 2 stars 3 stars 4 stars 5 stars
comments

Vitamin R Leading Us Along Tab

   
"Vitamin R (Leading Us Along)" by Chevelle

This is the first single from Chevelle's upcoming release "Thinking Like This
Could Do Us In", which hits stores September 21st. For this album, Pete has
tuned down another half step, all the way to A sharp! However, "Vitamin R" is
in Drop B tuning. Most of the songs from the Loeffler boys' last record "Wonder
What's Next" are in the same tuning. So slap some heavy strings on your guitar
and go to town. Here are all the parts to the song. Good Luck


Drop B Tuning (Low to High):  B F# B E G# C#

Intro/Verse: (* Indicate Palm Muting)

C#||--0--|-----------------------------------------------------------||
G#||--3--|-----------------------------------------------------------||
E ||--2--|--10-10-10--\--9-9-9--/--10-10-10--\--7-7-7---7-/-9-/-10---||
B ||--0--|---x-x-x--\--x-x-x--/---x-x-x--\--x-x-x---x-/-x-/--x---||
F#||-----|---8--8--8--\--7-7-7--/---8--8-8--\--5-5-5---5-/-7-/--8---||
B ||-----|---0--0--0-----0-0-0------0-0-0-----0-0-0---0---0----0---||
             *  *  *     * * *      *  *  *     * * * 

Pre-Chorus:
[ Tab from: http://www.guitartabs.cc/tabs/c/chevelle/vitamin_r_leading_us_along_tab_ver_2.html ]
C#||---------------------------------|-------------------------------||
G#||---------------------------------|-------------------------------||
E ||---------------------------------|-------------------------------||
B ||---------------------------------|-------------------------------||
F#||---------------------------------|-------------------------------||
B ||--0-0-0-0-0-0-3-3-3-3--5-5-5-5-|-0-0-0-0-0-3-3--5-5-5--7-7-7--||
      * * * * * *  * * * *   * * * *   * * * * *  * *  * * *  * * *


Chorus (^ Indicate Harmonics/Feedback)

C#||----------^0^--------------------------^0^---------------|--0--||
G#||----------^0^--------------------------^0^---------------|--3--||
E ||----------^0^--------------------------^0^---------------|--2--||
B ||--8-8-8-8---8-8-8-8h--10-10-\--55-5-5----5-5-5-5h-7-7--|--0--||
F#||--8-8-8-8---8-8-8-8h--10-10-\--55-5-5----5-5-5-5h-7-7--|-----||
B ||--8-8-8-8---8-8-8-8h--10-10-\--5-5-5-5----5-5-5-5h-7-7--|-----||



Bridge:

C#||-----------------------------------------------------------------||
G#||-----------------------------3--------3--------3--------3--------||
E ||-10-10-10-10--\--7-7-7-7-----2--------2--------2--------2--------||
B ||-10-10-10-10--\--55-5-5--\--0--0-0---0-0-0---0---0-0--0--0-0--||
F#||--8-8--8--8--\--55-5-5--\-----0-0------0-0-------0-0------0-0--||
B ||--8--8--8--8--\--5-5-5-5--\-----0-0------0-0-------0-0------0-0--||
                                    * *      * *       * *      * *
Comments