Chevelle - Vitamin R Leading Us Along Chords & Tabs

 

Vitamin R Leading Us Along Chords & Tabs

Chevelle Chords & Tabs

Version: 10 Type: Tab 0 ratings
1 star 2 stars 3 stars 4 stars 5 stars
comments

Vitamin R Leading Us Along Tab

   
Band-Chevelle
Song-Vitamin R(leading us along)
Tuning-Drop-D 1-1/2 steps down
this one is 100% right
Intro
C#|-------------------------------------------------|
G#|-------------------------------------------------|
 E|-9--9-9-9-9-9--9-9-9-9---7--7-7-7-7-7--7-7-7-7---|x2
 B|-0--0-0-0-0-0--0-0-0-0---0--0-0-0-0-0--0-0-0-0---|
F#|-0-----------------------------------------------|
 B|-------------------------------------------------|

Verse 
C#|----------------------------------------------------------|
G#|----------------------------------------------------------|
 E|-10--10-10-10-10-10--10-10-10-10--9--9-9-9-9-9--9-9-9-9---|x2
 B|--0---0--0--0--0--0---0--0--0--0--0--0-0-0-0-0--0-0-0-0---|
F#|--0-------------------------------0-----------------------|
 B|----------------------------------------------------------|

C#|----------------------------------------------------------|
G#|----------------------------------------------------------|
 E|-10--10-10-10-10-10--10-10-10-10---9--9-9-9-9-9--9-9-9-9--|x2
 B|--8---8--8--8--8--8---8--8--8--8---8--8-8-8-8-8--8-8-8-8--|
F#|--8---------------8---------8------8----------8------8----|
 B|----------------------------------------------------------|

C#|----------------------------------------------------------|
G#|----------------------------------------------------------|
 E|-10--10-10-10-10-10--10-10-10-10--9--9-9-9-9-9--9-9-9-9---|x2
 B|--0---0--0--0--0--0---0--0--0--0--0--0-0-0-0-0--0-0-0-0---|
F#|--0-------------------------------0-----------------------|
 B|----------------------------------------------------------|

C#|----------------------------------------------------------|
G#|----------------------------------------------------------|
 E|-10--10-10-10-10-10--10-10-10-10---9--9-9-9-9-9--9-9-9-9--|x2
 B|--8---8--8--8--8--8---8--8--8--8---8--8-8-8-8-8--8-8-8-8--|
F#|--8---------------8---------8------8----------8------8----|
 B|----------------------------------------------------------|

C#|-----------------------------------------------------------------|
G#|-----------------------------------------------------------------|
 E|-----------------------------------------------------------------|
 B|-----------------------------------------------------------------|
F#|-----------------------------------------------------------------|
 B|-0-0-0-0-0-0-0-0-0-0-0-0-0-0-0-0-0-0-0-0-0-0-0-3-3-3-3-3-3-3-3-3-|
[ Tab from: http://www.guitartabs.cc/tabs/c/chevelle/vitamin_r_leading_us_along_tab_ver_10.html ]
C#|-----------------------------------------------------------------|
G#|-----------------------------------------------------------------|
 E|-----------------------------------------------------------------|
 B|-----------------------------------------------------------------|
F#|-----------------------------------------------------------------|
 B|3-3-3-3-3-3-3-3-3-3-3-3-3-3-3-0-0-0-0-0-0-0-0-0-0-0-0-0-0-0-0-0--|

C#|-----------------------------------------------------------------|
G#|-----------------------------------------------------------------|
 E|-----------------------------------------------------------------|
 B|-----------------------------------------------------------------|
F#|-----------------------------------------------------------------|
 B|-0-0-0-0-0-0-0-5-5-5-5-5-5-5-5-5-5-5-5-3-3-3-3-3-3-3-3-3-3-3-3---|

Chorus
C#|----------------------------------------------------------|
G#|-------------12-12-12-12----------------------------------|
 E|----------------------------------------------------------|
 B|-8---8-8-8-8--9--9--9--9---8---8-8-8-8/10-10-10-10-0-0----|
F#|-8---8-8-8-8---------------8---8-8-8-8/10-10-10-10-0-0----|
 B|-8---8-8-8-8---------------8---8-8-8-8/10-10-10-10-0-0----|

C#|----------------------------------------------------------|
G#|-------------12-12-12-12----------------------------------|
 E|----------------------------------------------------------|
 B|-5---5-5-5-5--9--9--9--9---5---5-5-5-5\3-3-3-3-3----------|
F#|-5---5-5-5-5---------------5---5-5-5-5\3-3-3-3-3----------|
 B|-5---5-5-5-5---------------5---5-5-5-5\3-3-3-3-3----------|

Bridge
C#|-----------------------------------------------|
G#|-----------------------------------------------|
 E|-5-5--5----7-7--7----7-----7-----7-----7-------|
 B|-3-3--3-0--5-5--5-0--7-----7-----7-----7-------|
F#|-3-3--3-0--5-5--5-0--5-0-0-5-0-0-5-0-0-5-0-0---|
 B|-3-3--3-0--5-5--5-0----0-0---0-0---0-0---0-0---|

C#|--------------------------------------------------|
G#|--------------------------------------------------|
 E|-10-10--10----7-7--7----7-----7-----7-----7-------|
 B|--8--8---8-0--5-5--5-0--7-----7-----7-----7-------|
F#|--8--8---8-0--5-5--5-0--5-0-0-5-0-0-5-0-0-5-0-0---|
 B|--8--8---8-0--5-5--5-0----0-0---0-0---0-0---0-0---|

C#|-----------------------------------------------|
G#|-----------------------------------------------|
 E|-5-5--5----7-7--7----7-----7-----7-----7-------|
 B|-3-3--3-0--5-5--5-0--7-----7-----7-----7-------|
F#|-3-3--3-0--5-5--5-0--5-0-0-5-0-0-5-0-0-5-0-0---|
 B|-3-3--3-0--5-5--5-0----0-0---0-0---0-0---0-0---|

C#|------------------------------------------------|
G#|------------------------------------------------|
 E|-10-10--10----7-7--7----------------------------|
 B|--8--8---8-0--5-5--5-0--0-----------------------|
F#|--8--8---8-0--5-5--5-0--0-0-0-0-0-0-0-0-0-0-0-0-|
 B|--8--8---8-0--5-5--5-0--0-0-0-0-0-0-0-0-0-0-0-0-|
Comments