Chevelle - Vitamin R Leading Us Along Chords & Tabs

 

Vitamin R Leading Us Along Chords & Tabs

Chevelle Chords & Tabs

Version: 3 Type: Bass Tab 0 ratings
1 star 2 stars 3 stars 4 stars 5 stars
comments

Vitamin R Leading Us Along Bass Tab

Tuning one and a half steps down, B F# B E (low to high)
Moderately Slow m=63
its in 6/8, so you'll have to figure out the exact rhythms 

Intro (0:00) No Bass

Verse 1 (0:07)
|-----------------|-----------------|
|-----------------|-----------------|
|-----------------|-----------------|
|-0*--------------|-0*--------------|

|-----------------|-----------------|
|-----------------|-----------------|
|-----------------|-----------------|
|-0*--------------|-0*------0--0-3--|

|----------------------------|
|----------------------------|
|--1---1-1-1-1---1---1-1-1-1-| (x3)
|----------------------------|

|-------------------------|
|-------------------------|
|-1---1-1-1-1---1---1-0---|
|-------------------------|

|---------------------------|
|---------------------------|
|---------------------------| (x3)
|-0---0-0-0-0---0---0-0-0-0-|

|----------------------|
|----------------------|
|----------------------|
|-0---0-0-0-0---0--0-3-|

|----------------------------|
|----------------------------|
|--1---1-1-1-1---1---1-1-1-1-| (x3)
|----------------------------|

|-------------------------|
|-------------------------|
|-1---1-1-1-1---1---1-0---|
|-------------------------|

Pre-Chorus (0:38)
|-------------------------|
|-------------------------|
|-------------------------| (x2)
|-0-0-0-0-0-0-0-0-0-0-0-0-|

|-------------------------|
|-------------------------|
|-------------------------| (x2)
|-3-3-3-3-3-3-3-3-3-3-3-3-|

|-------------------------|
|-------------------------|
|-------------------------| (x2)
|-0-0-0-0-0-0-0-0-0-0-0-0-|

|-------------------------|-------------------------|
|-------------------------|-------------------------|
|-------------------------|-------------------------|
|-5-5-5-5-5-5-5-5-5-5-5-5-|-3-3-3-3-3-3-3-3-3-3-3-3-|

Chorus (0:53)
|----------------|---------------------|
|----------------|---------------------|
|-1--1-1--1------|-1--1-1--1-1/3--3-3-3|
|----------------|---------------------|

|----------------|----------------------|
|----------------|----------------------|
|----------------|----------------------|
|-5--5-5--5------|-5--5-5--5-5/3--3-3-3-|

|----------------|---------------------|
|----------------|---------------------|
|-1--1-1--1------|-1--1-1--1-1/3--3-3-3|
|----------------|---------------------|

|----------------|---------------------|
|----------------|---------------------|
|----------------|---------------------|
|-5--5-5--5------|-5--5-5--5-5-3-3-3-3-|

(1:08)
|-----------------|-----------------|
|-----------------|-----------------|
|-----------------|-----------------|
|-0*--------------|-0*--------------|

|-----------------|--------------------|
|-----------------|--------------------|
|-----------------|--------------------|
|-0*--------------|-0*---2-2---3---5-5-|

Verse 2 (1:15)
|---------------------------|
|---------------------------|
|---------------------------| (x3)
|-0---0-0-0-0---0---0-0-0-0-|

|----------------------|
|----------------------|
|----------------------|
|-0---0-0-0-0---0--0-3-|

|----------------------------|
|----------------------------|
|--1---1-1-1-1---1---1-1-1-1-| (x3)
|----------------------------|

|-------------------------|
|-------------------------|
|-1---1-1-1-1---1---1-0---|
|-------------------------|

|---------------------------|
|---------------------------|
|---------------------------| (x3)
|-0---0-0-0-0---0---0-0-0-0-|

|----------------------|
|----------------------|
|----------------------|
|-0---0-0-0-0---0--0-3-|

|----------------------------|
|----------------------------|
|--1---1-1-1-1---1---1-1-1-1-| (x3)
|----------------------------|

|-------------------------|
|-------------------------|
|-1---1-1-1-1---1---1-0---|
|-------------------------|
[ Tab from: http://www.guitartabs.cc/tabs/c/chevelle/vitamin_r_leading_us_along_btab_ver_3.html ]
Pre-Chorus (1:46)
|-------------------------|
|-------------------------|
|-------------------------| (x2)
|-0-0-0-0-0-0-0-0-0-0-0-0-|

|-------------------------|
|-------------------------|
|-------------------------| (x2)
|-3-3-3-3-3-3-3-3-3-3-3-3-|

|-------------------------|
|-------------------------|
|-------------------------| (x2)
|-0-0-0-0-0-0-0-0-0-0-0-0-|

|-------------------------|-------------------------|
|-------------------------|-------------------------|
|-------------------------|-------------------------|
|-5-5-5-5-5-5-5-5-5-5-5-5-|-3-3-3-3-3-3-3-3-3-3-3-3-|

Chorus (2:01)
|----------------|---------------------|
|----------------|---------------------|
|-1--1-1--1------|-1--1-1--1-1/3--3-3-3|
|----------------|---------------------|

|----------------|----------------------|
|----------------|----------------------|
|----------------|----------------------|
|-5--5-5--5------|-5--5-5--5-5/3--3-3-3-|

|----------------|---------------------|
|----------------|---------------------|
|-1--1-1--1------|-1--1-1--1-1/3--3-3-3|
|----------------|---------------------|

|----------------|---------------------|
|----------------|---------------------|
|----------------|---------------------|
|-5--5-5--5------|-5--5-5--5-5-3-3-3-3-|

Bridge (2:16)
|-------------------|-----------------|
|*------------------|-----------------|
|*------------------|-----------------|
|--3----3--3--0--3--|-5----5--5-3--0--|

|---------------|------------------|
|---------------|-----------------*|
|-5------5------|-5------35-3-----*| (x2)
|---0-0----0-0--|---0-0-------5----|

|------------------|-----------------|
|------------------|-----------------|
|-1----1--1--1-----|-----------------|
|---------------0--|-5----5--5--3--0-|

|---------------|-----------------|
|---------------|-----------------|
|-5------5------|-5------35-3-----|
|---0-0----0-0--|---0-0-------5---|

|------------------|-----------------|
|------------------|-----------------|
|-1----1--1--1-----|-----------------|
|---------------0--|-5----5--5--3--0-|

|--------|--------|--------------|--------------|
|--------|--------|--------------|--------------|
|--------|--------|-5------------|--------------|
|-0*-----|-0*-----|---0-0--0-0-0-|-0-0-0--0-0-0-|

Chorus (2:50)
|----------------|---------------------|
|----------------|---------------------|
|-1--1-1--1------|-1--1-1--1-1/3--3-3-3|
|----------------|---------------------|

|----------------|----------------------|
|----------------|----------------------|
|----------------|----------------------|
|-5--5-5--5------|-5--5-5--5-5/3--3-3-3-|

|----------------|---------------------|
|----------------|---------------------|
|-1--1-1--1------|-1--1-1--1-1/3--3-3-3|
|----------------|---------------------|

|----------------|---------------------|
|----------------|---------------------|
|----------------|---------------------|
|-5--5-5--5------|-5--5-5--5-5-3-3-3-3-|

(3:05)
|------------------------|------------------------|
|--------------------3-3-|------------------------|
|-1--1-1--1--1-1-1-1-3-3-|-1--1-1--1--1/3-3-3-3-5-|
|------------------------|------------------------|

|------------------------|--------------------|
|-----------------3-3-3--|--------------------|
|-----------------3-3-3--|--------------------|
|-5--5-5--5-5-5-5--------|-5--5-5--5-5-3--3-3-|

|------------------------|------------------------|
|--------------------3-3-|------------------------|
|-1--1-1--1--1-1-1-1-3-3-|-1--1-1--1--1/3-3-3-3-5-|
|------------------------|------------------------|

|------------------------|--------------------|
|-----------------3-3-3--|--------------------|
|-----------------3-3-3--|--------------------|
|-5--5-5--5-5-5-5--------|-5--5-5--5-5-3--3-3-|

Outro (3:20)
|-----------------|-----------------|
|-----------------|-----------------|
|-----------------|-----------------|
|-0*--------------|-0*--------------|


This is my first tab but it should be 100% correct so please rate!
Comments