Chevelle - Vitamin R Leading Us Along Chords & Tabs

 

Vitamin R Leading Us Along Chords & Tabs

Chevelle Chords & Tabs

Version: 2 Type: Bass Tab 0 ratings
1 star 2 stars 3 stars 4 stars 5 stars
comments

Vitamin R Leading Us Along Bass Tab

One of the best songs to rock out 2


 Intro

No bass


 Verse

|---------|----------|----------|-------------|
|---------|----------|----------|-------------|
|---------|----------|----------|-------------|
|-0-------|-(0)------|-(0)------|-(0)---3--5--|



|-----------|-----------|-----------|------------|
|-----------|-----------|-----------|------------|
|-----------|-----------|-----------|------------|
|-8----8----|-8----8----|-8----8----|-8----5--3--|



|-----------|-----------|-----------|------------|
|-----------|-----------|-----------|------------|
|-----------|-----------|-----------|------------|
|-0----0----|-0----0----|-0----0----|-0----3--5--|



|-----------|-----------|-----------|------------|
|-----------|-----------|-----------|------------|
|-----------|-----------|-----------|------------|
|-8----8----|-8----8----|-8----8----|-8----5--3--|


 Pre-Chorus

|-------------------|-------------------|
|-------------------|-------------------|
|-------------------|-------------------|
|-0--0-0-0-0--0-0-0-|-0--0-0-0-0--0-0-0-|


 |-------------------|-------------------|
|-------------------|-------------------|
|-------------------|-------------------|
|-3--3-3-3-3--3-3-3-|-3--3-3-3-3--3-3-3-|

|-------------------|-------------------|
|-------------------|-------------------|
|-------------------|-------------------|
|-0--0-0-0-0--0-0-0-|-0--0-0-0-0--0-0-0-|


  E. S S S E. S S S   E. S S S S S S S S S
|-------------------|------------------------||
|-------------------|------------------------||
|-------------------|------------------------||
|-5--5-5-5-5--5-5-5-|-3--3-3-3-3-3-3-3-3-3---||



||----------------|---------------------------|
||o---------------|---------------------------|
||o---------------|---------------------------|
||--8--8-8-8-8----|-8--8-8-8-/10-10-10-10-0-0-|


l---------------|------------------------||
|---------------|-----------------------o||
|---------------|-----------------------o||
|-5--5-5-5-5----|-5-5-5-5-5s3-3-3-3-3-3--||


 Pre-Verse
[ Tab from: http://www.guitartabs.cc/tabs/c/chevelle/vitamin_r_leading_us_along_btab_ver_2.html ]
|---------|----------|---------|------------||
|---------|----------|---------|------------||
|---------|----------|---------|------------||
|-0-------|-(0)------|-0-------|-0--0-3-5-0-||


 Verse

|-----------|-----------|-----------|------------|
|-----------|-----------|-----------|------------|
|-0--0-0----|-0--0-0----|-0--0-0----|-0----3--5--|

|-----------|-----------|-----------|------------|
|-----------|-----------|-----------|------------|
|-----------|-----------|-----------|------------|
|-8--8-8----|-8--8-8----|-8--8-8----|-8----5--3--|


|-----------|-----------|-----------|------------|
|-----------|-----------|-----------|------------|
|-----------|-----------|-----------|------------|
|-0--0-0----|-0--0-0----|-0--0-0----|-0----3--5--|



|-----------|-----------|-----------|------------||
|-----------|-----------|-----------|------------||
|-----------|-----------|-----------|------------||
|-8--8-8--8-|-8--8-8--8-|-8--8-8--8-|-8----5--3--||


   

 
||---------------|--------------|-------------|----------------||
||o--------------|--------------|-------------|---------------o||
||o--------------|--------------|-5-----5-----|-5-----3h5-3-0-o||
||--3--3-(3)-3-0-|-5--5-(5)-5-0-|---0-0---0-0-|---0-0----------||


       
||---------------|--------------|-------------|--------------------||
||o--------------|--------------|-------------|-------------------o||
||o--------------|--------------|-5-----5-----|-5---------3h5-3-0-o||
||--8--8-(8)-8-0-|-5--5-(5)-5-0-|---0-0---0-0-|---0-0-0-0----------||


|---------|----------|-------------|-------------||
|---------|----------|-------------|-------------||
|---------|----------|-5-----------|-------------||
|-0-------|-(0)------|---0-0-0-0-0-|-0-0-0-0-0-0-||


   Out-Chorus

||----------------|---------------------------|
||o---------------|---------------------------|
||o---------------|---------------------------|
||--8--8-8-8-8----|-8--8-8-8-/10-10-10-10-0-0-|



|---------------|------------------------||
|---------------|-----------------------o||
|---------------|-----------------------o||
|-5--5-5-5-5----|-5-5-5-5-5s3-3-3-3-3-3--||



|---------|----------||-----------|---------||
|---------|----------||o----------|--------o||
|---------|----------||o----------|--------o||
|-0-------|-(0)------||--(0)------|-(0)-----||
Comments