Chevelle - Vitamin R Leading Us Along Chords & Tabs

 

Vitamin R Leading Us Along Chords & Tabs

Chevelle Chords & Tabs

Version: 1 Type: Bass Tab 0 ratings
1 star 2 stars 3 stars 4 stars 5 stars
comments

Vitamin R Leading Us Along Bass Tab

   
-Verse- (x2)
E |--------------------------------------------------------------|
B |--------------------------------------------------------------|
F#|--------------------------------------------------------------|
B |-0*---------0-3-0--0000-0--0000-0--0000-0--0000-0--0000-0h0-3-|

E |----------------------------------------------------------------|
B |----------------------------------------------------------------|
F#|-1--1111-1--1111-1--1111-1--1111-1--1111-1--1111-1--1111-1--1p0-|
B |----------------------------------------------------------------|

-Pre Chorus-
E |---------------------------------------------------------|
B |---------------------------------------------------------|
F#|---------------------------------------------------------| (x2)
B |-000000-000000-000000-000000-333333-333333-333333-333333-|

-Chorus-
E |--------------------------------------------------|
B |--------------------------------------------------|
F#|-1--1--1---1--1--1-1/3--3--3----------------------| (x2)
B |--------------------------------5--5--5-5\3--3--3-|

E |-----------------------|
B |-----------------------|
F#|-----------------------|
B |-0*---------0---2-3--5-|

-Verse- (x2)
E |---------------------------------------------------------------|
B |---------------------------------------------------------------|
F#|---------------------------------------------------------------|
B |-0--0000-0--0000-0--0000-0--0000-0--0000-0--0000-0--0000-0h0-3-|

E |----------------------------------------------------------------|
B |----------------------------------------------------------------|
F#|-1--1111-1--1111-1--1111-1--1111-1--1111-1--1111-1--1111-1--1p0-|
B |----------------------------------------------------------------|

-Pre Chorus-
E |---------------------------------------------------------|
B |---------------------------------------------------------|
F#|---------------------------------------------------------| (x2)
B |-000000-000000-000000-000000-555555-555555-333333-333333-|
[ Tab from: http://www.guitartabs.cc/tabs/c/chevelle/vitamin_r_leading_us_along_btab.html ]
-Chorus-
E |--------------------------------------------------|
B |--------------------------------------------------|
F#|-1--1--1---1--1--1-1/3--3--3----------------------| (x2)
B |--------------------------------5--5--5-5\3--3--3-|

E |-----------------|
B |-----------------|
F#|-----------------|
B |-5--5--5---5-3-3-|

-Bridge-
E |------------------------------------------------|
B |------------------------------------------------|
F#|----------------------5-----5-----5-----3h5-3---|
B |-3--3--0-3-5--5--3-0----0-0---0-0---0-0-------5-|

E |------------------------------------------------|
B |------------------------------------------------|
F#|-1--1--1--------------5-----5-----5-----3h5-3---|
B |---------0-5--5--3-0----0-0---0-0---0-0-------5-|

E |------------------------------------------------|
B |------------------------------------------------|
F#|----------------------5-----5-----5-----3h5-3---|
B |-3--3--0-3-5--5--3-0----0-0---0-0---0-0-------5-|

E |------------------------------------------------|
B |------------------------------------------------|
F#|-1--1--1----------------------------------------|
B |---------0-5--5--3-0--0*------------------------|

E |------------------------------|
B |------------------------------|
F#|-5----------------------------|
B |---0-0-0--0-0-0--0-0-0--0-0-0-|

-Chorus-
E |--------------------------------------------------|
B |--------------------------------------------------|
F#|-1--1--1---1--1--1-1/3--3--3----------------------| (x2)
B |--------------------------------5--5--5-5\3--3--3-|

E |---------------------------------------------------|
B |------------------------------33-------------------|
F#|-----------------1--1--1-1111-33--1--1--1-1/3-3335-|
B |-5--5--5-5-3-3-------------------------------------|

E |----------------------------------------------------------------------|
B |---------------333----------------------------------------------------|
F#|---------------333------------------1--1--1-1111-33--1--1--1-1/3-3335-|
B |-5--5--5-5-5-5------5--5--5-5-3--3------------------------------------|

E |---------------------------------------|
B |---------------333---------------------|
F#|---------------333---------------------|
B |-5--5--5-5-5-5------5--5--5-5-3--3--0*-|
Comments