Chevelle - Until Youre Reformed Chords & Tabs

 

Until Youre Reformed Chords & Tabs

Chevelle Chords & Tabs

Version: 3 Type: Tab 0 ratings
1 star 2 stars 3 stars 4 stars 5 stars
comments

Until Youre Reformed Tab

   
this is easy but good so enjoy 

Until You're Reformed
Chevelle

Tuning: B F# B E G# C#

Intro
|-----------
|-----------
|-----------
|--------5--
|----5-4----
|--4--------
Harmonics...

Verse:
|---------------
|---------------
|---------------
|---------------
|--5-5-7-7-9-9--
|--0-0-0-0-0-0--

Chorus part 1:
|-----------------
|-----------------
|--11-11-7-7-6-6--
|-----------------
|--9--9--5-5-4-4--
|--0--0--0-0-0-0--
[ Tab from: http://www.guitartabs.cc/tabs/c/chevelle/until_youre_reformed_tab_ver_3.html ]
Chorus part 2:
|------------------------------------
|------------------------------------
|--------11-11-11-6-6-6-9-9-9-7-7-7--
|--0-0-0-----------------------------
|--0-0-0-9--9--9--4-4-4-7-7-7-5-5-5--
|--0-0-0-0--0--0--0-0-0-0-0-0-0-0-0--
   . . .

Bridge:
|---------------------------------0----
|--------------------------------------
|--------11-11-11-6-6-6-9-9-9-7-----7--
|--0-0-0-------------------------------
|--0-0-0-9--9--9--4-4-4-7-7-7-5--------
|--0-0-0-0--0--0--0-0-0-0-0-0-0-0------

.= Palm Mute


enjoy
Comments