Chevelle - Until Youre Reformed Chords & Tabs

 

Until Youre Reformed Chords & Tabs

Chevelle Chords & Tabs

Version: 1 Type: Bass Tab 0 ratings
1 star 2 stars 3 stars 4 stars 5 stars
comments

Until Youre Reformed Bass Tab

   
Band- Chevelle
Song- Until Youre Reformed

[ Tab from: http://www.guitartabs.cc/tabs/c/chevelle/until_youre_reformed_btab.html ]
Drop B
Intro-Nothing
Verse(I Can�t Type Out Rhythm)
E-----------------------------------------------------------------|
B-----------------------------4-----------------------------------|
F#----------------------------------------------------------------|
B--00-000-22-222-44-444-44-44-------------------------------------|
Chorus
E-----------------------------------------------------------------|
B-----------------------------------------------------------------|
F#--------------------5/4-----------------------------------------|
B--44-00-44-00-44-00----------------------------------------------|
Post Chorus
E-------------------------------------------------------------------------|
B-------------------------------------------------------------------------|
F#-------999-444-777------------------------------------------------------|
B---000-------------------------------------------------------------------|


ENJOY!!!!
Comments