Chevelle - The Red Chords & Tabs

 

The Red Chords & Tabs

Chevelle Chords & Tabs

Version: 7 Type: Tab 0 ratings
1 star 2 stars 3 stars 4 stars 5 stars
comments

The Red Tab

   
chevele

-the red-
tuning: c# f# b e g# c#  low to high
tabbed be Cory George sKiTsoFraNiaK@hotmail.com

Kick ass single from Chevelle's latest incredible album "Wonder What's Next."
As with all my tabs, if you need the bass part email me.
 
(#) ? natural harmonic for all notes or chords within the brackets

clean
intro repeat x2
|-------------------------------------------------------|
|-------------------------------------------------------|
|o-----------------------------------------------------o|
|o-------------5---5-5-5-5-------------10--10-10-10-10-o|
|------7-9-7-0-5---5-5-5-5-----7-9-7-0-10--10-10-10-10--|
|--0-----------3---3-0-3-0-0-----------8---8--8--8--8---|

distortion

verse  1  repeat x3
|--------------------------------------------------------|
|--------------------------------------------------------|
|o------------------------------------------------------o|
|o-------------5---5-5-5-5-------------10---10-10-10-10-o|
|------7-9-7-0-5---5-5-5-5-----7-9-7-0-10?--10-10-10-10--|
|--0-----------3---3-0-3-0-0-----------8----8?-8?-8--8---|
pm .   . . . . .   . . . . .   . . . . .    .  .  .  .

|----------------------------------------|
|----------------------------------------|
|----------------------------------------|
|-------------5---5-5-5-5-------------10-|
|-----7-9-7-0-5---5-5-5-5-----7-9-7-0-10-|
|-0-----------3---3-0-3-0-0-----------8--|
pm.   . . . . .   . . . . .   . . . .    


chorus
|---------------------------------------------------|
|---------------------------------------------------|
|-------------------------------------------------7-|
|-2---2-2-2-2-2---2-2-2-2-5---5-5-5-5-5---5-5-5-5-7-|
|-2---2-2-2-2-2---2-2-2-2-5---5-5-5-5-5---5-5-5-5-5-|
|-0---0-0-0-0-0---0-0-0-0-3---3-3-3-3-3---3-3-3-3---|

|---------------------------------------------|
|---------------------------------------------|
|-7-7-7-7-7---7-7-7-7-7---7-7-7-7-7---7-7-7-7-|
|-7-7-7-7-7---7-7-7-7-7---7-7-7-7-7---7-7-7-7-|
|-5-5-5-5-5---5-5-5-5-5---5-5-5-5-5---5-5-5-5-|
|---------------------------------------------|

|---------------------------------------------------|
|---------------------------------------------------|
|-------------------------------------------------7-|
|-2---2-2-2-2-2---2-2-2-2-5---5-5-5-5-5---5-5-5-5-7-|
|-2---2-2-2-2-2---2-2-2-2-5---5-5-5-5-5---5-5-5-5-5-|
|-0---0-0-0-0-0---0-0-0-0-3---3-3-3-3-3---3-3-3-3---|
[ Tab from: http://www.guitartabs.cc/tabs/c/chevelle/the_red_tab_ver_7.html ]
|-------------------------------------------------|
|-------------------------------------------------|
|-7-7-7-7-7---7-7-7-7-3\4-4-4-4-4-4-4-4-4-4-4-----|
|-7-7-7-7-7---7-7-7-7-3\4-4-4-4-4-4-4-4-4-4-4-----|
|-5-5-5-5-5---5-5-5-5-1\2-2-2-2-2-2-2-2-2-2-2-----|
|-------------------------------------------------|


after chorus repeat x2
|------------------------------------------------------|
|------------------------------------------------------|
|------------------------------------------------------|
|-------------5---5-5-5-5-------------10---10-10-10-10-|
|-----7-9-7-0-5---5-5-5-5-----7-9-7-0-10---10-10-10-10-|
|-0-----------3---3-0-3-0-0-----------8----8?-8?-8--8--|


verse   2  repeat x7
|--------------------------------------------------------|
|--------------------------------------------------------|
|o------------------------------------------------------o|
|o-------------5---5-5-5-5-------------10---10-10-10-10-o|
|------7-9-7-0-5---5-5-5-5-----7-9-7-0-10?--10-10-10-10--|
|--0-----------3---3-0-3-0-0-----------8----8?-8?-8--8---|
pm .   . . . . .   . . . . .   . . . . .    .  .  .  .

|----------------------------------------|
|----------------------------------------|
|----------------------------------------|
|-------------5---5-5-5-5-------------10-|
|-----7-9-7-0-5---5-5-5-5-----7-9-7-0-10-|
|-0-----------3---3-0-3-0-0-----------8--|
pm.   . . . . .   . . . . .   . . . .    


chorus

solo  tremolo picking
|-----------------------------------------------------------|
|-----------------------------------------------------------|
|-----------------------------------------------------------|
|-\9------------------------------------------\9------------|
|--------------------5----5\7---------7/--------------------|
|-----------------------------------------------------------|

|------------------------------|
|------------------------------|
|------------------------------|
|------------------------------|
|-7----7\9--------------7/-(3)-|
|--------------------------(3)-|

chorus x2

after chorus x4



|--------------------------------------------------------------------|
|--------------------------------------------------------------------|
|--------------------------------------------------------------------|
|-10-10-10-10-x-x-10-x-x-x-x-10-10-x-x-x-x-9-9-x-x-x-x-9-9-x-x-x-x-2-|
|-10-10-10-10-x-x-10-x-x-x-x-10-10-x-x-x-x-9-9-x-x-x-x-9-9-x-x-x-x-2-|
|-8--8?-8--8--x-x-8--x-x-x-x-8?8---x-x-x-x-7-7-x-x-x-x-7-7-x-x-x-x-0-|

outro  repeat x 4  clean
|--------------------------------------------------------|
|--------------------------------------------------------|
|o------------------------------------------------------o|
|o-------------5---5-5-5-5-------------10---10-10-10-10-o|
|------7-9-7-0-5---5-5-5-5-----7-9-7-0-10---10-10-10-10--|
|--0-----------3---3-0-3-0-0-----------8----8--8?-8--8---|

|-------------|
|-------------|
|-------------|
|-2-----------|
|-2-----------|
|-0-----------|
Comments