Chevelle - The Red Chords & Tabs

 

The Red Chords & Tabs

Chevelle Chords & Tabs

Version: 4 Type: Tab 0 ratings
1 star 2 stars 3 stars 4 stars 5 stars
comments

The Red Tab

   
			     Chevelle - The Red
----------------------------------------------------------------------

By: rackmaster32

Dropped Db Tuning
Db Ab Db Gb Bb Eb

() - Double Digit Frets
~ - Tremolo Pick

Intro, Post-Chorus, and Outro
eb|--------------------------------|
Bb|--------------------------------|
Gb|--------------------------------|
Db|0-----3303h5-0-----8888h(10)----|
Ab|0-5h7-3303h5-0-5h7-8888h(10)----|
Db|0-----3303h5-0-----8888h(10)----|

Verse
eb|---------------------------------|
Bb|---------------------------------|
Gb|---------------------------------|
Db|0-----3303h5-0-----8888h(10)-----|
Ab|0-5h7-3303h5-0-5h7-8888h(10)-----|
Db|0-----3303h5-0-----8888h(10)-----|
   P.M.-----------------------|                                                 
[ Tab from: http://www.guitartabs.cc/tabs/c/chevelle/the_red_tab_ver_4.html ]
Chorus              
eb|--------------------------------------------------------|
Bb|--------------------------------------------------------|
Gb|--------------------------------------------------------|
Db|0-0-3-3-(10)-(10)-(10)-(10)--0-0-3-3-(10)-(10)-5h77777--|
Ab|0-0-3-3-(10)-(10)-(10)-(10)--0-0-3-3-(10)-(10)-5h77777--|
Db|0-0-3-3-(10)-(10)-(10)-(10)--0-0-3-3-(10)-(10)-5h77777--|

Solo
eb|------------------------------------------------------------------|
Bb|------------------------------------------------------------------|
Gb|------------------------------------------------------------------|
Db|------------------------------------------------------------------|
Ab|-(12)~~~~~~~----------------------(12)~~~~~~~~~~------------------|
Db|--------------(10)~~~(12)~~~~~~~~~~-------------(12)~~~~~~~~~~~~--|

Fill
eb|----------------------------|
Bb|----------------------------|
Gb|----------------------------|
Db|88xxxx88xxxx77xxxx77xxxx----|
Ab|88xxxx88xxxx77xxxx77xxxx----|
Db|88xxxx88xxxx77xxxx77xxxx----|

Song Order-

Intro
Verse
Chorus
Post-Chorus
Verse 2x
Chorus
Solo
Chorus 2x
Fill
Outro

Any corrections email at rackmaster32@yahoo.com
======================================================================
Comments