Chevelle - The Red Chords & Tabs

 

The Red Chords & Tabs

Chevelle Chords & Tabs

Version: 17 Type: Tab 0 ratings
1 star 2 stars 3 stars 4 stars 5 stars
comments

The Red Tab

   
Band- Chevelle
Song- The Red

Gtr I (C# F# B E G# C#) - 'Untitled'
Gtr II (C# F# B E G# C#) - 'Untitled'
Gtr III (C# F# B E G# C#) - 'Untitled'
Gtr IV (C# F# B E G# C#) - 'Untitled'

   Intro
    Moderate Rock E=140
    E5        G5          E5        C5
   6/8
    Gtrs I, II
    E S S S S E S S S S   E S S S S  E  S  S  S S
||----------------------|--------------------------||
||o---------------------|-------------------------o||
||----------------------|--------------------------||
||----------------------|--------------------------||
||o-7-7-9-----5-5-5-5-0-|-7-7-9-----10-10-10-10-0-o||
||--0-0-0-0-0-3-3-0-3-0-|-0-0-0-0-0--8--8--0--8-0--||


   Verse
    E5        G5          E5        C5
    PM------------------------------------------|
    E S S S S E S S S S   E S S S S  E  S  S  S S  3x
||----------------------|--------------------------||
||o---------------------|-------------------------o||
||----------------------|--------------------------||
||----------------------|--------------------------||
||o-7-7-9-7-0-5-5-5-5-0-|-7-7-9-7-7-10-10-10-10-0-o||
||--0-0-0-0-0-3-3-0-3-0-|-0-0-0-0-0--8--8--0--8-0--||


  E5        G5          E5        C5
  PM------------------------------|
  E S S S S E S S S S   E S S S S  E Q
|---------------------|-----------------||
|---------------------|-----------------||
|---------------------|-----------------||
|---------------------|-----------------||
|-7-7-9-7-0-5-5-5-5-0-|-7-7-9-7-7-10----||
|-0-0-0-0-0-3-3-0-3-0-|-0-0-0-0-0--8----||


 Chorus
  $
  E5              G5
  E. E S E. E S   E. E S E S S  S S
|---------------|-------------------|
|---------------|-------------------|
|---------------|-------------------|
|-2--2-2-2--2-2-|-5--5-5-5-5-5------|
|-2--2-2-2--2-2-|-5--5-5-5-5-5----5-|
|-0--0-0-0--0-0-|-3--3-3-3-3-3-/5-5-|


  D5/A
  E. E S E S E S   E S E S E S S S S
|----------------|-------------------|
|----------------|-------------------|
|-7--7-7-7-7-7-7-|-7-7-7-7-7-7-7-7---|
|-7--7-7-7-7-7-7-|-7-7-7-7-7-7-7-7---|
|-5--5-5-5-5-5-5-|-5-5-5-5-5-5-5-5-0-|
|-5--5-5-5-5-5-5-|-5-5-5-5-5-5-5-5-0-|


                              To Coda
  E5                 G5
  E. E S E S S S S   E. E S E S S  S S
|------------------|-------------------|
|------------------|-------------------|
|------------------|-------------------|
|-2--2-2-2-2-2-----|-5--5-5-5-5-5------|
|-2--2-2-2-2-2-----|-5--5-5-5-5-5----5-|
|-0--0-0-0-0-0-0-0-|-3--3-3-3-3-3-/5-5-|


  D5/A                   B5
  E. S S S S S S S S S   S S S E S E S S S S
|----------------------|---------------------||
|----------------------|---------------------||
|-7--7-7-7-7-7-7-7-7---|-------4-4-4-4-4-4---||
|-7--7-7-7-7-7-7-7-7---|-------4-4-4-4-4-4-0-||
|-5--5-5-5-5-5-5-5-5-0-|-0h2-2-2-2-2-2-2-2-0-||
|-5--5-5-5-5-5-5-5-5---|---------------------||


    E5        G5          E5        C5
    E S S S S E S S S S   E S S S S  E  S  S  S S
||----------------------|--------------------------||
||o---------------------|-------------------------o||
||----------------------|--------------------------||
||----------------------|--------------------------||
||o-7-7-9-7-7-5-5-5-5-0-|-7-7-9-----10-10-10-10-0-o||
||--0-0-0-0-0-3-3-0-3-0-|-0-0-0-0-0--8--8--0--8-0--||


   Verse
    E5        G5          E5        C5
    PM------------------------------------------|
    E S S S S E S S S S   E S S S S  E  S  S  S S  7x
||----------------------|--------------------------||
||o---------------------|-------------------------o||
||----------------------|--------------------------||
||----------------------|--------------------------||
||o-7-7-9-7-0-5-5-5-5-0-|-7-7-9-7-0-10-10-10-10-0-o||
||--0-0-0-0-0-3-3-0-3-0-|-0-0-0-0-0--8--8--0--8-0--||


                           D.S. al Coda
  PM------------------------------|
  E S S S S E S S S S   E S S S S  E Q
|---------------------|-----------------||
|---------------------|-----------------||
|---------------------|-----------------||
|---------------------|-----------------||
|-7-7-9-7-0-5-5-5-5-0-|-7-7-9-7-7-10----||
|-0-0-0-0-0-3-3-0-3-0-|-0-0-0-0-0--8----||


  &
   E. S S S  S  S S S S S    S S S E S E S  S S   S
|-------------------------|-------------------------|
|-------------------------|-------------------------|
|--7--7-7-7--7--7-7-7-7---|--------4-4-4-4--4-4-----|
|--7--7-7-7--7--7-7-7-7---|--------4-4-4-4--4-4---0-|
|--5--5-5-5--5--5-5-5-5-0-|--0h2-2-2-2-2-2--2-2---0-|
|--5--5-5-5--5--5-5-5-5---|-------------------------|
|
| Gtr IV
|  Q.        Q.              H.
|-14--------12------------|-------------------------|
|-------------------------|-15----------------------|
|-------------------------|-------------------------|
|-------------------------|-------------------------|
|-------------------------|-------------------------|
|-------------------------|-------------------------|
|
| Gtr III
|  W                         H           E.     A S
|-------------------------|-------------------------|
|-------------------------|-------------------------|
|-------------------------|-------------------------|
|-------------------------|---------------------7s9-|
|-------------------------|-------------------------|
|-------------------------|-------------------------|


 Interlude
  Gtr III
  S S S S S S S S S S S S   S S S S S S  S S  S  E    S
|-------------------------|-----------------------------|
|-------------------------|-----------------------------|
|-------------------------|-----------------------------|
|-9-9-9-9-9-9-9-9-9-9-9-9-|-9-9-9-9-9-9--9-9--0--0----0-|
|-------------------------|-----------------------------|
|-------------------------|-----------------------------|
|
| Gtrs I, II
| PM--------------------------------------------------|
| E   S S S S E   S S S S   E   S S S S  E    S  S  S S
|-------------------------|-----------------------------|
|-------------------------|-----------------------------|
|-------------------------|-----------------------------|
|-------------------------|-----------------------------|
|-7---7-9-7-0-5---5-5-5-0-|-7---7-9-7-7-10---10-10-10-0-|
|-0---0-0-0-0-3---3-0-3-0-|-0---0-0-0-0--8----8--0--8-0-|


  S S S S S S S S S S S S   S S S S S S  S S   Q
|-------------------------|-------------------------------|
|-------------------------|-------------------------------|
|-------------------------|-------------------------------|
|-2-2-2-2-2-2-2-2-2-2-2-2-|-2-2-2-2-2-2--2-2--------------|
|-------------------------|-------------------------------|
|-------------------------|------------------/12\---------|
|
| PM----------------------------------------------------|
| E   S S S S E   S S S S   E   S S S S  E     S   S  S S
|-------------------------|-------------------------------|
|-------------------------|-------------------------------|
|-------------------------|-------------------------------|
|-------------------------|-------------------------------|
|-7---7-9-7-0-5---5-5-5-0-|-7---7-9-7-7-10----10--10-10-0-|
|-0---0-0-0-0-3---3-0-3-0-|-0---0-0-0-0--8-----8---0--8-0-|

[ Tab from: http://www.guitartabs.cc/tabs/c/chevelle/the_red_tab_ver_17.html ]
  Gtr IV
  W                          H.
|-------------------------|-------------------------------|
|-------------------------|-15----------------------------|
|-------------------------|-------------------------------|
|-------------------------|-------------------------------|
|-------------------------|-------------------------------|
|-------------------------|-------------------------------|
|
| Gtr III
| S S S S S S S S S S S S    S  S S S S S  S S  S  E    S
|-------------------------|-------------------------------|
|-------------------------|-------------------------------|
|-------------------------|-------------------------------|
|-9-9-9-9-9-9-9-9-9-9-9-9-|--9--9-9-9-9-9--9-9--0--0----0-|
|-------------------------|-------------------------------|
|-------------------------|-------------------------------|
|
| Gtrs I, II
| E   S S S S E   S S S S    E    S S S S  E    S  S  S S
|-------------------------|-------------------------------|
|-------------------------|-------------------------------|
|-------------------------|-------------------------------|
|-------------------------|-------------------------------|
|-7---7-9-7-0-5---5-5-5-0-|--7----7-9-7-7-10---10-10-10-0-|
|-0---0-0-0-0-3---3-0-3-0-|--0----0-0-0-0--8----8--0--8-0-|


    <
   +H.                          +Q.            Q.
|----------------------------|----------------15-----||
|-(15)-----------------------|-(15)-----------15-----||
|----------------------------|-----------------------||
|----------------------------|-----------------------||
|----------------------------|-----------------------||
|----------------------------|-----------------------||
|
|   S  S S S S S S S S S S S     S  S S S S S  Q.
|----------------------------|-----------------------||
|----------------------------|-----------------------||
|----------------------------|-----------------------||
|---2--2-2-2-2-2-2-2-2-2-2-2-|---2--2-2-2-2-2--------||
|----------------------------|-----------------------||
|----------------------------|-----------------------||
|
|   E    S S S S E   S S S S     E    S S S S  E  Q
|----------------------------|-----------------------||
|----------------------------|-----------------------||
|----------------------------|-----------------------||
|----------------------------|-----------------------||
|---7----7-9-7-0-5---5-5-5-0-|---7----7-9-7-7-10-----||
|---0----0-0-0-0-3---3-0-3-0-|---0----0-0-0-0--8-----||


   Chorus
    E5                 G5
    Gtrs I, II
    E. E S E S S S S   E. E S E S S  S S
||-------------------|-------------------|
||o------------------|-------------------|
||-------------------|-------------------|
||--2--2-2-2-2-2-----|-5--5-5-5-5-5------|
||o-2--2-2-2-2-2-----|-5--5-5-5-5-5----5-|
||--0--0-0-0-0-0-0-0-|-3--3-3-3-3-3-/5-5-|


  D5/A
                                 PM
  E S E S E S E S   E. E S E S S E
|-----------------|----------------|
|-----------------|----------------|
|-7-7-7-7-7-7-7-7-|-7--7-7-7-7-7---|
|-7-7-7-7-7-7-7-7-|-7--7-7-7-7-7---|
|-5-5-5-5-5-5-5-5-|-5--5-5-5-5-5-0-|
|-5-5-5-5-5-5-5-5-|-5--5-5-5-5-5-0-|


  E5                 G5
  E. E S E S S S S   E. E S E S S  S S
|------------------|-------------------|
|------------------|-------------------|
|------------------|-------------------|
|-2--2-2-2-2-2-----|-5--5-5-5-5-5------|
|-2--2-2-2-2-2-----|-5--5-5-5-5-5----5-|
|-0--0-0-0-0-0-0-0-|-3--3-3-3-3-3-/5-5-|


  D5/A
                                     PM
  E. E S E S S S S   S S S E S E S S E
|------------------|--------------------||
|------------------|-------------------o||
|-7--7-7-7-7-7-7---|--------------------||
|-7--7-7-7-7-7-7---|-4---4-4-4-4-4-5-0--||
|-5--5-5-5-5-5-5-0-|-0h2-2-2-2-2-2-2-0-o||
|-5--5-5-5-5-5-5---|-----------------0--||


   Bridge
    E5        G5          E5        C5
    E S S S S E S S S S   E S S S S  E  S  S  S S  3x
||----------------------|--------------------------||
||o---------------------|-------------------------o||
||----------------------|--------------------------||
||----------------------|--------------------------||
||o-7-7-9-7-7-5-5-5-5-0-|-7-7-9-----10-10-10-10-0-o||
||--0-0-0-0-0-3-3-0-3-0-|-0-0-0-0-0--8--8--0--8-0--||


  E S S S S E S S S S   E S S S S  E  S  S  S  S
|---------------------|--------------------------|
|---------------------|--------------------------|
|---------------------|--------------------------|
|---------------------|--------------------------|
|-7-7-9-7---5-5-5-5-0-|-7-7-9-7-7-10-10-10-10-10-|
|-0-0-0-0-0-3-3-0-3-0-|-0-0-0-0-0--8--8--0--8--0-|


   S  S S S S S  S  S S S S S   S S S S S S S S S S  E
|-----------------------------|-------------------------||
|-----------------------------|-------------------------||
|-----------------------------|-------------------------||
|-----------------------------|-------------------------||
|-10-10-x-x-x-x-10-10-x-x-x-x-|-9-9-x-x-x-x-9-9-x-------||
|--8--8-x-x-x-x--8--8-x-x-x-x-|-7-7-x-x-x-x-7-7-x-3s10\-||


 Outro
  Gtr III
  E  S S S S E S S S S    E  S S S S  E  S  S  S S
|----------------------|---------------------------|
|----------------------|---------------------------|
|----------------------|---------------------------|
|----------------------|---------------------------|
|-7--7-9-----5-5-5-5-0-|--7--7-9-----10-10-10-10-0-|
|-0--0-0-0-0-3-3-0-3-0-|--0--0-0-0-0--8--8--0--8-0-|
|
| Gtrs I, II
| H.                     +H.
|----------------------|---------------------------|
|----------------------|---------------------------|
|----------------------|---------------------------|
|-2--------------------|-(2)-----------------------|
|-2--------------------|-(2)-----------------------|
|-0--------------------|-(0)-----------------------|


   E  S S S S E S S S S    E  S S S S  E  S  S  S S
|-----------------------|---------------------------|
|-----------------------|---------------------------|
|-----------------------|---------------------------|
|-----------------------|---------------------------|
|--7--7-9-----5-5-5-5-0-|--7--7-9-----10-10-10-10-0-|
|--0--0-0-0-0-3-3-0-3-0-|--0--0-0-0-0--8--8--0--8-0-|
|
| +H.                     +H.
|-----------------------|---------------------------|
|-----------------------|---------------------------|
|-----------------------|---------------------------|
|-(2)-------------------|-(2)-----------------------|
|-(2)-------------------|-(2)-----------------------|
|-(0)-------------------|-(0)-----------------------|


   E  S S S S E S S S S    E  S S S S  E  E S S
|-----------------------|-----------------------|
|-----------------------|-----------------------|
|-----------------------|-----------------------|
|-----------------------|-----------------------|
|--7--7-9-7-0-5-5-5-5-0-|--7--7-9-----10-10-x-0-|
|--0--0-0-0-0-3-3-0-3-0-|--0--0-0-0-0--8--8-0-0-|
|
| +H.                     +H.
|-----------------------|-----------------------|
|-----------------------|-----------------------|
|-----------------------|-----------------------|
|-(2)-------------------|-(2)-------------------|
|-(2)-------------------|-(2)-------------------|
|-(0)-------------------|-(0)-------------------|


   H.        +H.        +H.        +H.        +H.
|----------|----------|----------|----------|--------*|
|----------|----------|----------|----------|--------*|
|----------|----------|----------|----------|--------*|
|----------|----------|----------|----------|--------*|
|--7-------|-(7)------|-(7)------|-(7)------|-(7)----*|
|--0-------|-(0)------|-(0)------|-(0)------|-(0)----*|
|
| +H.        +H.        +H.        +H.        +H.
|----------|----------|----------|----------|--------*|
|----------|----------|----------|----------|--------*|
|----------|----------|----------|----------|--------*|
|-(2)------|-(2)------|-(2)------|-(2)------|-(2)----*|
|-(2)------|-(2)------|-(2)------|-(2)------|-(2)----*|
|-(0)------|-(0)------|-(0)------|-(0)------|-(0)----*|


Duration Legend
---------------
W - whole; H - half; Q - quarter; E - 8th; S - 16th; T - 32nd; X - 64th; a - acciaccatura
+ - note tied to previous; . - note dotted; .. - note double dotted
Uncapitalized letters represent notes that are staccato (1/2 duration)
Irregular groupings are notated above the duration line
Duration letters will always appear directly above the note/fret number it represents the
duration for.  Duration letters with no fret number below them represent rests.  Multi-
bar rests are notated in the form Wxn, where n is the number of bars to rest for.  Low
melody durations appear below the staff

Tablature Legend
----------------
 h   - hammer-on
 p   - pull-off
 b   - bend
 pb  - pre-bend
 r   - bend release (if no number after the r, then release immediately)
 /\  - slide into or out of (from/to "nowhere")
 s   - legato slide
 S   - shift slide
  - natural harmonic
[n]  - artificial harmonic
n(n) - tapped harmonic
 ~   - vibrato

 tr  - trill
 T   - tap
 TP  - trem. picking
 PM  - palm muting
\n/  - tremolo bar dip; n = amount to dip
 \n  - tremolo bar down
 n/  - tremolo bar up
/n\  - tremolo bar inverted dip
 =   - hold bend; also acts as connecting device for hammers/pulls
 <>  - volume swell (louder/softer)
 x   - on rhythm slash represents muted slash
 o   - on rhythm slash represents single note slash

Misc Legend
-----------
 |  - bar
||  - double bar
||o - repeat start
o|| - repeat end
*|  - double bar (ending)
 :  - bar (freetime)
 $  - Segno
 &  - Coda
Tempo markers -  = BPM(8/16=s8/s16), where s8 = swing 8ths, s16 = swing 16ths


***************************************************************************************
* Generated using Power Tab Editor by Brad Larsen - http://powertab.guitarnetwork.org *
***************************************************************************************
Comments