Chevelle - The Red Chords & Tabs

 

The Red Chords & Tabs

Chevelle Chords & Tabs

Version: 16 Type: Tab 0 ratings
1 star 2 stars 3 stars 4 stars 5 stars
comments

The Red Tab

Chevelle
The Red
Standard C# (C#F#BEG#C#)
Tabbed By: AnotherIdiot101

I decided to make the tab of this song beause all the other
tabs of this song are way way off...so here it is

Intro:
C#|-----------------------------------------------------|
G#|-----------------------------------------------------|
E |-----------------------------------------------------|
B |-------------5--5-5-5-5--------------10--------------|X2
F#|-7--7-9-7-0--5--5-5-5-5--7--7-9-7-0--10--10-10-10-10-|
C#|-0--0-0-0-0--3--3-0-3-0--0--0-0-0-0---8---8--0--8--0-|


1st Verse:
|-----------------------------------------------------|
|-----------------------------------------------------|
|-----------------------------------------------------|
|--------------5-5-5--5-5-----------------------------| x3
|--7---7-9-7---5-5-5--5-5--7-7-9-7-0--10--10-10-10-10-|
|--0---0-0-0-0-3-3-0--3-0--0-0-0-0-0---8---8--0--8--0-|
PM .   . . .  . . .  . .  . . . . .   .   .  .  .  .

B |------------5-5-5--5-5------------10-|
F#|-7-7-9-7-0--5-5-5--5-5--7-7-9-7---10-|
C#|-0-0-0-0-0--3-3-0--3-0--0-0-0-0-0--8-|
. .   . .  . . .  . .  . .


Chorus: find out strumming pattern
|-------------------------------------------|
|-------------------------------------------|
|---------------------------------7-7-7--7--|
|-2---2-2-2-2--5---5-5-5-5-5---7--7-7-7--7--|
|-2---2-2-2-2--5---5-5-5-5-5---5--5-5-5--5--|
|-0---0-0-0-0--3---3-3-3-3-3----------------|

|----------------------------------------------------|
|----------------------------------------------------|
|---------------------------------7-7-7--7----4-4-4--|
|-2---2-2-2-2--5---5-5-5-5-5---7--7-7-7--7--2-4-4-4--|
|-2---2-2-2-2--5---5-5-5-5-5---5--5-5-5--5--0-2-2-2--|
|-0---0-0-0-0--3---3-3-3-3-3-------------------------|

Play intro riff 2x
[ Tab from: http://www.guitartabs.cc/tabs/c/chevelle/the_red_tab_ver_16.html ]
Verse 2:
|-----------------------------------------------------|
|-----------------------------------------------------|
|-----------------------------------------------------|
|--------------5-5-5--5-5-----------------------------| x2
|--7---7-9-7---5-5-5--5-5--7-7-9-7-0--10--10-10-10-10-|
|--0---0-0-0-0-3-3-0--3-0--0-0-0-0-0---8---8--0--8--0-|


B |------------5-5-5--5-5------------------------------|
F#|-7-7-9-7-0--5-5-5--5-5--7-7-9-7-0--10--10-10-10-10--|  x8
C#|-0-0-0-0-0--3-3-0--3-0--0-0-0-0-0---8---8--0--8--0--|
  . . . . .  . . .  . .  . . . . .   .   .  .  .  .

B |------------5-5-5--5-5-----------10-|
F#|-7-7-9-7-0--5-5-5--5-5--7-7-9-7--10-|
C#|-0-0-0-0-0--3-3-0--3-0--0-0-0-0-0-8-|
. .   . .  . . .  . .  . .

Chorus again

Solo: not hard at all           first time                 second time
|---------------------------|----------------------------|--------------|
|---------------------------|----------------------------|--------------|
|---------------------------|----------------------------|--------------|
|-9-9-9-9-9-9-9-9-9-12p0--0-|----------------------------|--------------|
|---------------------------|-7-7-7-7-7-7-7-7-7-7\5-5-5--|-7~-7~-7~---\-|
|---------------------------|----------------------------|--------------|

Chorus here again x2
then this...
C#|-----------------------------------------------------|
G#|-----------------------------------------------------|
E |-----------------------------------------------------|
B |-------------5--5-5-5-5--------------10--------------| x4
F#|-7--7-9-7-0--5--5-5-5-5--7--7-9-7-0--10--10-10-10-10-|
C#|-0--0-0-0-0--3--3-0-3-0--0--0-0-0-0---8---8--0--8--0-|

-----------------------------------------------------------------------|
-----------------------------------------------------------------------|
-----------------------------------------------------------------------|
-----------5--5-5-5-5-------------10-10-xxx-10-10-xxx-9-9-xxx-9-9-xx-9-|
-7-7-9-7-0-5--5-5-5-5--7--7-9-7---10-10-xxx-10-10-xxx-9-9-xxx-9-9-xx-9-|
-0-0-0-0-0-3--3-0-3-0--0--0-0-0-0--8 8--xxx-8--8--xxx-7-7-xxx-7-7-xx-7-|

Outro
|-----------------------------------------------------|
|-----------------------------------------------------|
|-----------------------------------------------------|
|------------5-5-5-5-5----------------10--------------|X4
|-7-7-9-7-0--5-5-5-5-5--7-7--9--7-0---10-10-10-10--10-|
|-0-0-0-0-0--3-3-0-3-0--0-0--0--0-0----8--8--0--8---0-|
Comments