Chevelle - The Red Chords & Tabs

 

The Red Chords & Tabs

Chevelle Chords & Tabs

Version: 14 Type: Tab 0 ratings
1 star 2 stars 3 stars 4 stars 5 stars
comments

The Red Tab

   
Song: The Red
Artist: Chevelle
Tuning: Db Ab Db Gb Bb Eb
Dropped D-Tuning plus half step down
Tabbed By: Anthony Cali

           ~~~~~~~~~~~~~~~~~~~~~~~~~~~~~~~~~~~~~~~~~~~~~~~

Verse
P.M.-------------------------------

Eb ------------------------------------------|
Bb ------------------------------------------|
Gb ------------------------------------------|
Db ---------3-33-33---------8-88-88----------|
Ab ----^5---3-33-33-----^5--8-88-88----------|
Db ?0-0?--0-3-33-33--0-0--0-8-88-88----------|
[ Tab from: http://www.guitartabs.cc/tabs/c/chevelle/the_red_tab_ver_14.html ]
Chorus
Eb ------------------------------------------|
Bb ------------------------------------------|
Gb -------------------5-555-555-555-55-------|
Db ?0-000-00-3-333-33-5-555-555-555-55-------|
Ab -0-000-00-3-333-33-3-333-333-333-33-------|
Db ?0-000-00-3-333-33------------------------|

Bridge
Eb ----------------------------------------|
Bb ----------------------------------------|
Gb ----------------------------------------|
Db ?7//--5-//-------7//--10//-12//---------|
Ab -----------5//--------------------------|3}
Db ----------------------------------------|3}
Tremolo = (//)				Harmonic
Comments