Chevelle - The Red Chords & Tabs

 

The Red Chords & Tabs

Chevelle Chords & Tabs

Version: 11 Type: Tab 0 ratings
1 star 2 stars 3 stars 4 stars 5 stars
comments

The Red Tab

Song: The Red
Artist: Chevelle
Tabber: Rob (rob@leftatom.com)
Tuning: Standard (EBGDAE)
Notes: The songs is awesome, I LOVE the chorus! You can do it in
       Drop D tuning (EBGDAd) if you want to. But you'll have to
       use your own knowledge of standard to drop-d translation,
       because i'm too lazy to include it.

Intro/Verse:
[ Tab from: http://www.guitartabs.cc/tabs/c/chevelle/the_red_tab_ver_11.html ]
e-|-------------------------------|
B-|-------------------------------|
G-|-------------------------------|
D-|---6---6-6-6-6---2---2-2-2-2---| Repeat.
A-|---6---6-6-6-6---2---2-2-2-2---|
E-|---4---4-4-4-4---0---0-0-0-0---|


Chorus:

e-|---------------|
B-|---------------|
G-|-----------4---|
D-|---6---2---4---| Use these chords in this pattern, listen to the
A-|---6---2---2---| song for the rhythm.
E-|---4---0-------|

And that's it! It was VERY easy to figure out, probably the easiest tab
I've done. I'm doin' it for the beginners! Have fun!
Comments