Chevelle - The Red Chords & Tabs

 

The Red Chords & Tabs

Chevelle Chords & Tabs

Version: 1 Type: Tab 1 rating
1 star 2 stars 3 stars 4 stars 5 stars
comments

The Red Tab

 	The song is really easy and if i had four arms i'd play the bass line too

		my first tab o god and i'm patrick the irish maggot

		

	Guitar Intro\verse
	
	e-|-----------------------------
	b-|-----------------------------
	g-|--6--6-6-6-X-2---2-2-2-2-2---
	d-|--6--6-6-6-X-2---2-2-2-2-2---   > repeat 12 times
	a-|--4--4-4-4-X-0---0-0-0-0-0---
	e-|-----------------------------
	

	bass verse


	g-|-----------------------------
	d-|-----------------------------
	a-|----------------------------- >reapeat 8 times
	e-|-4-4444--0-0000--------------


	
	Guitar chorus
[ Tab from: http://www.guitartabs.cc/tabs/c/chevelle/the_red_tab.html ]
	
	e-|------------	
	b-|------------
	g-|--6-----4---
	d-|--6--2--4--- >repeat 2 times: you have to strum it to get the rhythn
	a-|--4--2--2---
	e-|-----0------	


	bass chorus

	g-|--------------------------------------
	d-|--------------------------------------
	a-|--4-44444444-7-77777777-2-22222222---- >repeat 2 times along with guitar
	e-|--------------------------------------

	
	verses 2 and 3 are the same as 1

	the guitar solo is BS! they are just hitting the 10 fret on the "A" string
	with a crap load of effects



			Goodbye i'm done here    easy right? yep i knew it
						ha!   beginner song
	











Comments