Chevelle - The Red Chords & Tabs

 

The Red Chords & Tabs

Chevelle Chords & Tabs

Version: 3 Type: Bass Tab 0 ratings
1 star 2 stars 3 stars 4 stars 5 stars
comments

The Red Bass Tab

verses:
G|--------------------------------------------------------
D|--------------------------------------------------------
A|-5-5-0-5-0-------------------------------------------
E|-----------------1-1-0-1-0--------------------------- over and over thru whole verse

chorus:
G|---------------------------------------------------------
D|---------------------------------------------------------
A|-5-5-5-5-5-5-8-8-8-8-8-8-3-3-3-3-3-3---------
E|---------------------------------------------------------

G|---------------------------------------------------------
D|---------------------------------------------------------
A|-5-5-5-5-5-5-8-8-8-8-8-8-3-3-3-3-3-3---------
E|-----------------------------------------0-0-0-0-0-0-
[ Tab from: http://www.guitartabs.cc/tabs/c/chevelle/the_red_btab_ver_3.html ]
guitar solo:
G|--------------------------------------------------------
D|--------------------------------------------------------
A|-5-5-0-5-0-------------------------------------------
E|-----------------1-1-0-1-0--------------------------- thru whole solo

bridge (seeing red again screaming part):
G|--------------------------------------------------------
D|--------------------------------------------------------
A|-5-5-0-5-0-------------------------------------------
E|-----------------1-1-0-1-0--------------------------- thru till last part before end then

G|---------------------------------------------------------
D|---------------------------------------------------------
A|-5-5---5-5---0-0---0-0-----------------5-----------hold out
E|---------------------------------------------------------





tabbed by Zeke
any questions contact me:
zions_child_@hotmail.com
Comments