Chevelle - The Clincher Chords & Tabs

 

The Clincher Chords & Tabs

Chevelle Chords & Tabs

Version: 3 Type: Tab 0 ratings
1 star 2 stars 3 stars 4 stars 5 stars
comments

The Clincher Tab

   
Band- Chevelle
Song- The Clincher

  D5                   E5                   F5                   G5
      0 0 x x x x          2 2 x x x x          3 3 x x x x          5 5 x x x x

          Bb5
      8 8 x x x x

Gtr I (A# F A# D# G C) - 'Pete (Right)'
Gtr II (A# F A# D# G C) - 'Pete (Left)'
Gtr III (A# F A# D# G C) - '(Overdub)'
Gtr IV (A# F A# D# G C) - 'Clean'

 Intro
  Moderately Q=88
  N.C.
 4/4
  Gtr I
        <
  Q  E  Q   +Q.     S S S S S S S S S S S S S S S S
|-----------------|-----------------------------------|
|-----------------|-----------------------------------|
|-----------------|-----------------------------------|
|------<3>--(3)---|-----------------------------------|
|-----------------|-----------------------------------|
|----x------------|-3-2-0-5-3-0-3-2-0-5-3-0-2-0-3-0---|
|
| Gtr II
| W                 S S S S S S S E   S S S S S S T T
|-----------------|-----------------------------------|
|-----------------|-----------------------------------|
|-----------------|-x-x-x-x-x-x-x-x---x-x-x-x-x-x-x-x-|
|-----------------|-x-x-x-x-x-x-x-x---x-x-x-x-x-x-x-x-|
|-----------------|-x-x-x-x-x-x-x-x---x-x-x-x-x-x-x-x-|
|-----------------|-x-x-x-x-x-x-x-x---x-x-x-x-x-x-x-x-|


  S S S S S S S S S S S S S S S S
|------------------------------------|
|------------------------------------|
|------------------------------------|
|------------------------------------|
|------------------------------------|
|-3-2-0-5-3-0-3-2-0-5-3-0-2-0-3-0----|
|
| S S S S S S S E   S S S S S S T T
|------------------------------------|
|------------------------------------|
|-x-x-x-x-x-x-x-x---x-x-x-x-x-x-x-x--|
|-x-x-x-x-x-x-x-x---x-x-x-x-x-x-x-x--|
|-x-x-x-x-x-x-x-x---x-x-x-x-x-x-x-x--|
|-x-x-x-x-x-x-x-x---x-x-x-x-x-x-x-x--|


  S S S S S S S S S S S S S S S S     S S S S S S S S S S S S S  E.
|-----------------------------------|--------------------------------||
|-----------------------------------|--------------------------------||
|-----------------------------------|---------------------------<5>--||
|-----------------------------------|---------------------------<5>--||
|-----------------------------------|--------------------------------||
|-3-2-0-5-3-0-3-2-0-5-3-0-2-0-3-0---|-3-2-0-5-3-0-3-2-0-5-3-0-2------||
|
| S S S S S S S E   S S S S S S T T   S S S S S S S E   S S S S  E.
|-----------------------------------|--------------------------------||
|-----------------------------------|--------------------------------||
|-x-x-x-x-x-x-x-x---x-x-x-x-x-x-x-x-|-x-x-x-x-x-x-x-x---x-x-x-x-<5>--||
|-x-x-x-x-x-x-x-x---x-x-x-x-x-x-x-x-|-x-x-x-x-x-x-x-x---x-x-x-x-<5>--||
|-x-x-x-x-x-x-x-x---x-x-x-x-x-x-x-x-|-x-x-x-x-x-x-x-x---x-x-x-x------||
|-x-x-x-x-x-x-x-x---x-x-x-x-x-x-x-x-|-x-x-x-x-x-x-x-x---x-x-x-x------||


  F5E5D5G5F5D5F5E5D5G5F5D5E5D5F5D5  F5E5D5G5F5D5F5E5D5G5F5D5E5D5F5D5
  Gtrs I, II
  S S S S S S S S S S S S S S S S   S S S S S S S S S S S S S S S S
|---------------------------------|---------------------------------|
|---------------------------------|---------------------------------|
|---------------------------------|---------------------------------|
|-3-2-0-5-3-0-3-2-0-5-3-0-2-0-3-0-|-3-2-0-5-3-0-3-2-0-5-3-0-2-0-3-0-|
|-3-2-0-5-3-0-3-2-0-5-3-0-2-0-3-0-|-3-2-0-5-3-0-3-2-0-5-3-0-2-0-3-0-|
|-3-2-0-5-3-0-3-2-0-5-3-0-2-0-3-0-|-3-2-0-5-3-0-3-2-0-5-3-0-2-0-3-0-|


  F5E5D5G5F5D5F5E5D5G5F5D5E5D5F5D5  F5E5D5G5F5D5F5E5D5G5F5D5
  S S S S S S S S S S S S S S S S   S S S S S S S S S S S S S S E
|---------------------------------|--------------------------------||
|---------------------------------|--------------------------------||
|---------------------------------|-------------------------x-x----||
|-3-2-0-5-3-0-3-2-0-5-3-0-2-0-3-0-|-3-2-0-5-3-0-3-2-0-5-3-0-x-x----||
|-3-2-0-5-3-0-3-2-0-5-3-0-2-0-3-0-|-3-2-0-5-3-0-3-2-0-5-3-0-x-x----||
|-3-2-0-5-3-0-3-2-0-5-3-0-2-0-3-0-|-3-2-0-5-3-0-3-2-0-5-3-0-x-x----||


   Verse
    Gtr I
    W          H    E T T S T T S T T S
||-----------|--------------------------|
||o----------|--------------------------|
||-----------|--------------------------|
||-----------|--------------------------|
||o----------|--------------------------|
||-----------|--------x-x-x-x-x-x-x-x-x-|
|
|   Gtr II
|   W          W
||-----------|--------------------------|
||o----------|--------------------------|
||-----------|--------------------------|
||-----------|--------------------------|
||o----------|--------------------------|
||-----------|--------------------------|


  W          W
|----------|-----------------------------||
|----------|----------------------------o||
|----------|-----------------------------||
|----------|-----------------------------||
|----------|----------------------------o||
|----------|-----------------------------||
|
| W          H    E T T S T T S T T S
|----------|-----------------------------||
|----------|----------------------------o||
|----------|-----------------------------||
|----------|-----------------------------||
|----------|----------------------------o||
|----------|--------x-x-x-x-x-x-x-x-x----||


 Bridge
  N.C.
  Gtr IV
   S  S  S  S  S  S  S  S  S  S  S  S  S  S  S  S
|-------------------------------------------------|
|-------------------------------------------------|
|-10-10-10-10-10-10-10-10-10-10-10-10-10-10-10-10-|
|--x--x--x--x--x--x--x--x--x--x--x--x--x--x--x--x-|
|--8--8--8--8--8--8--8--8--8--8--8--8--8--8--8--8-|
|-------------------------------------------------|


  S S S S S S S S S S S S S S S S
|---------------------------------|
|---------------------------------|
|-7-7-7-7-7-7-7-7-7-7-7-7-7-7-7-7-|
|-x-x-x-x-x-x-x-x-x-x-x-x-x-x-x-x-|
|-5-5-5-5-5-5-5-5-5-5-5-5-5-5-5-5-|
|---------------------------------|


  N.C.
                                                    Gtrs I, II
   S  S  S  S  S  S  S  S  S  S  S  S  S  S  S  S   H.      +E   E
|-------------------------------------------------|-----------------||
|-------------------------------------------------|-----------------||
|-10-10-10-10-10-10-10-10-10-10-10-10-10-10-10-10-|-7-------(7)-----||
|--x--x--x--x--x--x--x--x--x--x--x--x--x--x--x--x-|-5-------(5)-----||
|--8--8--8--8--8--8--8--8--8--8--8--8--8--8--8--8-|-5-------(5)-----||
|-------------------------------------------------|-5-------(5)-<3>-||


   Verse
                       D5        N.C.                     D5        N.C.
     W           +Q.   S S e e e  e     W           +Q.   S S e e e  e    4x
||-------------|---------------------|------------|-----------------------||
||o------------|---------------------|------------|----------------------o||
||-------------|---------------------|------------|-----------------------||
||--<5>--------|-(5)-----------------|-<5>--------|-(5)-------------------||
||o------------|-------x-x-0-0-0-----|------------|-------x-x-0-0-0------o||
||-------------|-------x-x-0-0-0-<3>-|------------|-------x-x-0-0-0-<3>---||


    G5                 F5G5              F5
    Q  E S S E S S  E  S S   S E. S E. S S S S S S E  4x
||-------------------------|--------------------------||
||o------------------------|-------------------------o||
||-------------------------|--------------------------||
||--5--5-5-5-5-5-5--6--3-5-|-5-5--5-5--x-3-3-3-3-3-3--||
||o-5--5-5-5-5-5-5-(5)-3-5-|-5-5--5-5--x-3-3-3-3-3-3-o||
||--5--5-5-5-5-5-5-(5)-3-5-|-5-5--5-5--x-3-3-3-3-3-3--||


 Pre-Chorus
  Gtr IV
   S  S  S  S  S  S  S  S  S  S  S  S  S  S  S  S
|-------------------------------------------------|
|-------------------------------------------------|
|-10-10-10-10-10-10-10-10-10-10-10-10-10-10-10-10-|
|--x--x--x--x--x--x--x--x--x--x--x--x--x--x--x--x-|
|--8--8--8--8--8--8--8--8--8--8--8--8--8--8--8--8-|
|-------------------------------------------------|


  S S S S S S S S S S S S S S S S
|---------------------------------||
|---------------------------------||
|-7-7-7-7-7-7-7-7-7-7-7-7-7-7-7-7-||
|-x-x-x-x-x-x-x-x-x-x-x-x-x-x-x-x-||
|-5-5-5-5-5-5-5-5-5-5-5-5-5-5-5-5-||
|---------------------------------||


 Chorus
  G5                     Bb5
  Gtrs I, II
  e. S e S S S S e e e   e. S e S S S S e e e
|----------------------|----------------------|
|----------------------|----------------------|
|----------------------|----------------------|
|-5--5-5-5-5-5-5-5-5-5-|-8--8-8-8-8-8-8-8-8-8-|
|-5--5-5-5-5-5-5-5-5-5-|-8--8-8-8-8-8-8-8-8-8-|
|-5--5-5-5-5-5-5-5-5-5-|-8--8-8-8-8-8-8-8-8-8-|


  F5                     D5
  e. S e S S S S e e e   e. S e S S S S e e e
|----------------------|-----------------------|
|----------------------|-----------------------|
|----------------------|-----------------------|
|-3--3-3-3-3-3-3-3-3-3-|-0--0-0-0-0-0-0-0-0-0--|
|-3--3-3-3-3-3-3-3-3-3-|-0--0-0-0-0-0-0-0-0-0--|
|-3--3-3-3-3-3-3-3-3-3-|-0--0-0-0-0-0-0-0-0-0--|


  G5
  Gtrs I, II
   e.        S  e     S  S  S  S  e     e     e
|--------------------------------------------------|
|--------------------------------------------------|
|--------------------------------------------------|
|--5---------5--5-----5--5--5--5--5-----5-----5----|
|--5---------5--5-----5--5--5--5--5-----5-----5----|
|--5---------5--5-----5--5--5--5--5-----5-----5----|
|
| Gtr III
|  S   S  S  S  S  S  S  S  S  S  S  S  S  S  S  S
|--------------------------------------------------|
|--------------------------------------------------|
|-10--10-10-10-10-10-10-10-10-10-10-10-10-10-10-10-|
|--x---x--x--x--x--x--x--x--x--x--x--x--x--x--x--x-|
|--8---8--8--8--8--8--8--8--8--8--8--8--8--8--8--8-|
|--------------------------------------------------|

[ Tab from: http://www.guitartabs.cc/tabs/c/chevelle/the_clincher_tab_ver_3.html ]
  Bb5
  e.     S e   S S S S e   e   e
|----------------------------------|
|----------------------------------|
|----------------------------------|
|-8------8-8---8-8-8-8-8---8---8---|
|-8------8-8---8-8-8-8-8---8---8---|
|-8------8-8---8-8-8-8-8---8---8---|
|
| S  S S S S S S S S S S S S S S S
|----------------------------------|
|----------------------------------|
|-7--7-7-7-7-7-7-7-7-7-7-7-7-7-7-7-|
|-x--x-x-x-x-x-x-x-x-x-x-x-x-x-x-x-|
|-5--5-5-5-5-5-5-5-5-5-5-5-5-5-5-5-|
|----------------------------------|


  F5
   e.        S  e     S  S  S  S  e     e     e
|-----------------------------------------------|
|-----------------------------------------------|
|-----------------------------------------------|
|--3---------3--3-----3--3--3--3--3-----3-----3-|
|--3---------3--3-----3--3--3--3--3-----3-----3-|
|--3---------3--3-----3--3--3--3--3-----3-----3-|
|
|  S   S  S  S  S  S  S  S  S  S  S  S  S  E.
|-----------------------------------------------|
|-----------------------------------------------|
|-12--12-12-12-12-12-12-12-12-12-12-12S14-14----|
|--x---x--x--x--x--x--x--x--x--x--x--x--x--x----|
|-10--10-10-10-10-10-10-10-10-10-10-10S12-12----|
|-----------------------------------------------|


  D5
  e.     S e   S S S S e   e   e
|-----------------------------------||
|-----------------------------------||
|-----------------------------------||
|-0------0-0---0-0-0-0-0---0---0----||
|-0------0-0---0-0-0-0-0---0---0----||
|-0------0-0---0-0-0-0-0---0---0----||
|
| S  S S S S S S S S S S S S S S S
|-----------------------------------||
|-----------------------------------||
|-7--7-7-7-7-7-7-7-7-7-7-7-7-7-7-7--||
|-x--x-x-x-x-x-x-x-x-x-x-x-x-x-x-x--||
|-5--5-5-5-5-5-5-5-5-5-5-5-5-5-5-5--||
|-----------------------------------||


 Breakdown
    PM------------------------|     PM------------------------|
  E S S S S S S S S S S S S S S   E S S S S S S S S S S S S S S
|-------------------------------|-------------------------------|
|-------------------------------|-------------------------------|
|-------------------------------|-------------------------------|
|-0-----------------------------|-0-----------------------------|
|-0-----------------------------|-0-----------------------------|
|-0-2-3-2-0-3p0-2-3-2-0-2-3-5-3-|-0-2-3-2-0-3p0-2-3-2-0-2-3-5-3-|


  E S S S S S S S S S S S S S S   E S S S S S S S S S S S  E.
|-------------------------------|-----------------------------||
|-------------------------------|-----------------------------||
|-------------------------------|-------------------------<5>-||
|-0-----------------------------|-0-----------------------<5>-||
|-0-----------------------------|-0---------------------------||
|-0-2-3-2-0-3p0-2-3-2-0-2-3-5-3-|-0-2-3-2-0-3p0-2-3-2-0-2-----||


  F5E5D5G5F5D5F5E5D5G5F5D5E5D5F5D5  F5E5D5G5F5D5F5E5D5G5F5D5E5D5F5D5
  S S S S S S S S S S S S S S S S   S S S S S S S S S S S S S S S S
|---------------------------------|---------------------------------|
|---------------------------------|---------------------------------|
|---------------------------------|---------------------------------|
|-3-2-0-5-3-0-3-2-0-5-3-0-2-0-3-0-|-3-2-0-5-3-0-3-2-0-5-3-0-2-0-3-0-|
|-3-2-0-5-3-0-3-2-0-5-3-0-2-0-3-0-|-3-2-0-5-3-0-3-2-0-5-3-0-2-0-3-0-|
|-3-2-0-5-3-0-3-2-0-5-3-0-2-0-3-0-|-3-2-0-5-3-0-3-2-0-5-3-0-2-0-3-0-|


  F5E5D5G5F5D5F5E5D5G5F5D5E5D5F5D5  F5E5D5G5F5D5F5E5D5G5F5D5E5D5  FD5
  S S S S S S S S S S S S S S S S   S S S S S S S S S S S S S  E.
|---------------------------------|---------------------------------|
|---------------------------------|---------------------------------|
|---------------------------------|---------------------------<5>---|
|-3-2-0-5-3-0-3-2-0-5-3-0-2-0-3-0-|-3-2-0-5-3-0-3-2-0-5-3-0-2-<5>---|
|-3-2-0-5-3-0-3-2-0-5-3-0-2-0-3-0-|-3-2-0-5-3-0-3-2-0-5-3-0-2-------|
|-3-2-0-5-3-0-3-2-0-5-3-0-2-0-3-0-|-3-2-0-5-3-0-3-2-0-5-3-0-2-------|


  F5E5D5G5F5D5F5E5D5G5F5D5E5D5F5D5    F5E5D5G5F5D5F5E5D5G5F5D5E5D5F5D5
  S S S S S S S S S S S S S S S S     S S S S S S S S S S S S S S S S
|---------------------------------||-----------------------------------||
|---------------------------------||o---------------------------------o||
|---------------------------------||-----------------------------------||
|-3-2-0-5-3-0-3-2-0-5-3-0-2-0-3-0-||--3-2-0-5-3-0-3-2-0-5-3-0-2-0-3-0--||
|-3-2-0-5-3-0-3-2-0-5-3-0-2-0-3-0-||o-3-2-0-5-3-0-3-2-0-5-3-0-2-0-3-0-o||
|-3-2-0-5-3-0-3-2-0-5-3-0-2-0-3-0-||--3-2-0-5-3-0-3-2-0-5-3-0-2-0-3-0--||


 Out-Chorus
  G5                     Bb5
  Gtrs I, II
  e. S e S S S S e e e   e. S e S S S S e e e
|----------------------|----------------------|
|----------------------|----------------------|
|----------------------|----------------------|
|-5--5-5-5-5-5-5-5-5-5-|-8--8-8-8-8-8-8-8-8-8-|
|-5--5-5-5-5-5-5-5-5-5-|-8--8-8-8-8-8-8-8-8-8-|
|-5--5-5-5-5-5-5-5-5-5-|-8--8-8-8-8-8-8-8-8-8-|


  F5                     D5
  e. S e S S S S e e e   e. S e S S S S e e e
|----------------------|-----------------------|
|----------------------|-----------------------|
|----------------------|-----------------------|
|-3--3-3-3-3-3-3-3-3-3-|-0--0-0-0-0-0-0-0-0-0--|
|-3--3-3-3-3-3-3-3-3-3-|-0--0-0-0-0-0-0-0-0-0--|
|-3--3-3-3-3-3-3-3-3-3-|-0--0-0-0-0-0-0-0-0-0--|


    G5
    Gtrs I, II
     e.        S  e     S  S  S  S  e     e     e
||---------------------------------------------------|
||o--------------------------------------------------|
||---------------------------------------------------|
||---5---------5--5-----5--5--5--5--5-----5-----5----|
||o--5---------5--5-----5--5--5--5--5-----5-----5----|
||---5---------5--5-----5--5--5--5--5-----5-----5----|
|
|   Gtr III
|    S   S  S  S  S  S  S  S  S  S  S  S  S  S  S  S
||---------------------------------------------------|
||o--------------------------------------------------|
||--10--10-10-10-10-10-10-10-10-10-10-10-10-10-10-10-|
||---x---x--x--x--x--x--x--x--x--x--x--x--x--x--x--x-|
||o--8---8--8--8--8--8--8--8--8--8--8--8--8--8--8--8-|
||---------------------------------------------------|


  Bb5
  e.     S e   S S S S e   e   e
|-----------------------------------|
|-----------------------------------|
|-----------------------------------|
|-8------8-8---8-8-8-8-8---8---8----|
|-8------8-8---8-8-8-8-8---8---8----|
|-8------8-8---8-8-8-8-8---8---8----|
|
| S  S S S S S S S S S S S S S S S
|-----------------------------------|
|-----------------------------------|
|-7--7-7-7-7-7-7-7-7-7-7-7-7-7-7-7--|
|-x--x-x-x-x-x-x-x-x-x-x-x-x-x-x-x--|
|-5--5-5-5-5-5-5-5-5-5-5-5-5-5-5-5--|
|-----------------------------------|


  F5
   e.        S  e     S  S  S  S  e     e     e
|-----------------------------------------------|
|-----------------------------------------------|
|-----------------------------------------------|
|--3---------3--3-----3--3--3--3--3-----3-----3-|
|--3---------3--3-----3--3--3--3--3-----3-----3-|
|--3---------3--3-----3--3--3--3--3-----3-----3-|
|
|  S   S  S  S  S  S  S  S  S  S  S  S  S  E.
|-----------------------------------------------|
|-----------------------------------------------|
|-12--12-12-12-12-12-12-12-12-12-12-12S14-14----|
|--x---x--x--x--x--x--x--x--x--x--x--x--x--x----|
|-10--10-10-10-10-10-10-10-10-10-10-10S12-12----|
|-----------------------------------------------|


  D5
  e.     S e   S S S S e   e   e     3x
|------------------------------------||
|-----------------------------------o||
|------------------------------------||
|-0------0-0---0-0-0-0-0---0---0-----||
|-0------0-0---0-0-0-0-0---0---0----o||
|-0------0-0---0-0-0-0-0---0---0-----||
|
| S  S S S S S S S S S S S S S S S   3x
|------------------------------------||
|-----------------------------------o||
|-7--7-7-7-7-7-7-7-7-7-7-7-7-7-7-7---||
|-x--x-x-x-x-x-x-x-x-x-x-x-x-x-x-x---||
|-5--5-5-5-5-5-5-5-5-5-5-5-5-5-5-5--o||
|------------------------------------||


   Outro
    F5E5D5G5F5D5F5E5D5G5F5D5E5D5F5D5    F5E5D5G5F5D5F5E5D5
    S S S S S S S S S S S S S S S S  7x S S S S S S S S E Q.
||-----------------------------------||------------------------*|
||o---------------------------------o||------------------------*|
||-----------------------------------||------------------------*|
||--3-2-0-5-3-0-3-2-0-5-3-0-2-0-3-0--||-3-2-0-5-3-0-3-2-0------*|
||o-3-2-0-5-3-0-3-2-0-5-3-0-2-0-3-0-o||-3-2-0-5-3-0-3-2-0------*|
||--3-2-0-5-3-0-3-2-0-5-3-0-2-0-3-0--||-3-2-0-5-3-0-3-2-0------*|


Duration Legend
---------------
W - whole; H - half; Q - quarter; E - 8th; S - 16th; T - 32nd; X - 64th; a - acciaccatura
+ - note tied to previous; . - note dotted; .. - note double dotted
Uncapitalized letters represent notes that are staccato (1/2 duration)
Irregular groupings are notated above the duration line
Duration letters will always appear directly above the note/fret number it represents the
duration for.  Duration letters with no fret number below them represent rests.  Multi-
bar rests are notated in the form Wxn, where n is the number of bars to rest for.  Low
melody durations appear below the staff

Tablature Legend
----------------
 h   - hammer-on
 p   - pull-off
 b   - bend
 pb  - pre-bend
 r   - bend release (if no number after the r, then release immediately)
 /\  - slide into or out of (from/to "nowhere")
 s   - legato slide
 S   - shift slide
  - natural harmonic
[n]  - artificial harmonic
n(n) - tapped harmonic
 ~   - vibrato
 tr  - trill
 T   - tap
 TP  - trem. picking
 PM  - palm muting
\n/  - tremolo bar dip; n = amount to dip
 \n  - tremolo bar down
 n/  - tremolo bar up
/n\  - tremolo bar inverted dip
 =   - hold bend; also acts as connecting device for hammers/pulls
 <>  - volume swell (louder/softer)
 x   - on rhythm slash represents muted slash
 o   - on rhythm slash represents single note slash

Misc Legend
-----------
 |  - bar
||  - double bar
||o - repeat start
o|| - repeat end
*|  - double bar (ending)
 :  - bar (freetime)
 $  - Segno
 &  - Coda
Tempo markers -  = BPM(8/16=s8/s16), where s8 = swing 8ths, s16 = swing 16ths


***************************************************************************************
* Generated using Power Tab Editor by Brad Larsen - http://powertab.guitarnetwork.org *
***************************************************************************************
Comments