Chevelle - Still Running Chords & Tabs

 

Still Running Chords & Tabs

Chevelle Chords & Tabs

Version: 1 Type: Tab 0 ratings
1 star 2 stars 3 stars 4 stars 5 stars
comments

Still Running Tab

Email:snoutman928@yahoo.com
[ Tab from: http://www.guitartabs.cc/tabs/c/chevelle/still_running_tab.html ]
Tuning:drop B
This is a great song off the punisher sountrack
intro
e|---------------------------------------------------------------------------|
B|---------------------------------------------------------------------------|
G|---------------------------------------------------------------------------|
D|---------------------------------------------------------------------------|
A|---------------------------------------------------------------------------|
E|-0-0-3-3-5-5-6-6-5-5-5-5-3-3-3-3-5-5-5-5-3-3-5-5-5-5-3---------------------|
intro pt.2
e|---------------------------------------------------------------------------|
B|---------------------------------------------------------------------------|
G|---------------------------------------------------------------------------|
D|---------------------------------------------------------------------------|
A|-0-0-3-3-5-5-6-6-5-5-5-5-3-3-3-3-5-5-5-5-3-3-5-5-5-5-3---------------------|
E|-0-0-3-3-5-5-6-6-5-5-5-5-3-3-3-3-5-5-5-5-3-3-5-5-5-5-3---------------------|
verse
e|---------------------------------------------------------------------------|
B|---------------------------------------------------------------------------|
G|---------------------------------------------------------------------------|
D|-0-3-5-6-5-3-5-3-5-3-------------------------------------------------------|
A|-0-3-5-6-5-3-5-3-5-3-------------------------------------------------------|
E|-0-3-5-6-5-3-5-3-5-3-------------------------------------------------------|

e|---------------------------------------------------------------------------|
B|---------------------------------------------------------------------------|
G|---------------------------------------------------------------------------|
D|-3-3--3-3-3-2-0------------------------------------------------------------|
A|-3-3--3-3-3-2-0------------------------------------------------------------|
E|-3-3--3-3-3-2-0------------------------------------------------------------|
Bridge
e|---------------------------------------------------------------------------|
B|---------------------------------------------------------------------------|
G|-3(x17)/-7-7-7-------------------------------------------------------------|
D|---------------5-----/-3-3-------------------------------------------------|
A|---------------5(x17)/-3-3-------------------------------------------------|
E|---------------5-----/-3-3-------------------------------------------------|
Bridge pt.2
e|---------------------------------------------------------------------------|
B|---------------------------------------------------------------------------|
G|-3-----/-7-7-7-------------------------------------------------------------|
D|-3(x17)/-7-7-7--5-----/-3-3-3----------------------------------------------|
A|-1-----/-5-5-5--5(x17)/-3-3-3--------(x4)----------------------------------|
E|----------------5-----/-3-3-3----------------------------------------------|
Thats pretty much it. enjoy
Comments