Chevelle - Skeptic Chords & Tabs

 

Skeptic Chords & Tabs

Chevelle Chords & Tabs

Version: 2 Type: Tab 0 ratings
1 star 2 stars 3 stars 4 stars 5 stars
comments

Skeptic Tab

Chevelle is a mazing and this song is pretty easy enjoy! by fattymcfat97

intro:(distortion)
e|--------------------------------------------------------------------------|
B|--------------------------------------------------------------------------|
G|--------------------------------------------------------------------------|
D|--------------------------------------------------------------------------|
A|--2---2-- 32---23334333334-23334342---------------------------------------|
E|--0---0-- 30---03334333334-03334340---------------------------------------|

verse:(clean) just keep doing this till' the chorus
[ Tab from: http://www.guitartabs.cc/tabs/c/chevelle/skeptic_tab_ver_2.html ]
e|--------------------------------------------------------------------------|
B|--------------------------------------------------------------------------|
G|--------------------------------------------------------------------------|
D|--------------------------------------------------------------------------|
A|-- 5-5--------------------------------------------------------------------|
E|0-3-3---------------------------------------------------------------------|


chorus: (distortion)
e|--------------------------------------------------------------------------|
B|--------------------------------------------------------------------------|
G|--------------------------------------------------------------------------|
D|--------------------------------------------------------------------------|
A|222233335-----------------------------------------------------------------|
E|000033335-----------------------------------------------------------------|
do the intro after this again and the bridge is just the verse with a bunch of people 
in the backround
Comments