Chevelle - Skeptic Chords & Tabs

 

Skeptic Chords & Tabs

Chevelle Chords & Tabs

Version: 1 Type: Tab 0 ratings
1 star 2 stars 3 stars 4 stars 5 stars
comments

Skeptic Tab

   
Author/Artist: Chevelle
Title: Skeptic
Album: Point #1
Transcribed by: Wes Dolezal
Email: Laminate_Man@yahoo.com
http://www.geocities.com/SunsetStrip/Diner/8868/main.html

A cool song to play when you have two guitar
players.  Of course its Drop D.

-|-----------------------|
-|-----------------------|
-|-----------------------|
-|-0------0------3-0---0-|
-|-0------0------3-0---0-|
-|-0------0------3-0---0-|
G1. opening.

-|-----------------------------------------------------|
-|-----------------------------------------------------|
-|-----------------------------------------------------|
-|-0-----------------------0---------------------------|
-|-0-----------------------0---------------------------|
-|-0-----------------------0---------------------------|
G1. Main

-|-----------------------------------------------------|
-|-----------------------------------------------------|
-|---0-2-0-2--0-2-0-2-2b3-----0-2-0-2--0-2-0-2-2b3-----|
-|---0-0-0-0--0-0-0-0---------0-0-0-0--0-0-0-0---------|
-|-----------------------------------------------------|
-|-----------------------------------------------------|
G2. Main
[ Tab from: http://www.guitartabs.cc/tabs/c/chevelle/skeptic_tab.html ]
-|-----------------------------------------------------|
-|-----------------------------------------------------|
-|-----------------------------------------------------|
-|-3-0----------------------------------0--------------|
-|-3-0--------------------------3-3-3-3-0--------------|
-|-3-0-----------------------3--3-3-3-3-0--------------|
G1. cont.                 ----pm----

-|-----------------------------------------------------|
-|-----------------------------------------------------|
-|------0-2-0-2--0-2-0-2-2b3--------------0-2-0-2------|
-|------0-0-0-0--0-0-0-0------------------0-0-0-0------|
-|-----------------------------------------------------|
-|-----------------------------------------------------|
G2. cont.         You know what to do.

-|-------------|---------------------------------------|
-|-------------|---------------------------------------|
-|------0h2-2--|-----0-2-0-2--0-2-0-2-2b3--------------|
-|----0-0---0--|-----0-0-0-0--0-0-0-0------------------|
-|-------------|---------------------------------------|
-|--0----------|--0------------------------3---0-------|
Verse.       -pm-------------------------------

-|-------------------|-------------------|
-|-------------------|-------------------|
-|-------------------|-3-3-2-2-----------|
-|-3-3-2-2-3-3-3-3-3-|-3-3-2-2-3---------|
-|-3-3-2-2-3-3-3-3-3-|-1-1-0-0-3-----0h1-|
-|-3-3-2-2-3-3-3-3-3-|---------3-3h5-----|
(quiet) "This isnt even clear" part.

-|-------------|
-|-------------|
-|-9------10---|
-|-------------|
-|-------------|
-|-------------|
fill(let notes ring out)

Next Tab Planned: Cold - "The Switch"
Comments