Chevelle - Skeptic Chords & Tabs

 

Skeptic Chords & Tabs

Chevelle Chords & Tabs

Version: 1 Type: Chords 0 ratings
1 star 2 stars 3 stars 4 stars 5 stars
comments

Skeptic Chords

Date: Mon, 16 Oct 2000 18:05:10 -0400
From: Steven 
Subject: c/chevelle/skeptic.crd
Group: Chevelle
Album: Point#1
Song: Skeptic
Tabbed by: Steven Carey (aakornnut999@excite.com)

Dropped D Tuning

Intro:
Feedback
e:--@@@------------@@@--|
B:--@@@------------@@@--|
G:--@@@------------@@@--|
D:--@@@-0---0--3-0-@@@--|
A:--@@@-0---0--3-0-@@@--|
D:--@@@-0---0--3-0-@@@--|
[ Tab from: http://www.guitartabs.cc/tabs/c/chevelle/skeptic_crd.html ]
Chorus:
D:--0--5-7-5-7--5-7-5-7-5-7)--------------333-333--|
A:--0-------------------------repeat-then-333-333--|
D:--0-------------------------------------333-333--|

Verse:
(clean)
mess around with these notes: play loosly
B:--0-0-0-0--|
G:--2-5-4-0--|
D:--0-0-0-0--|

Fill:
D:--3-2-3-333333--3-2-333333----|
A:--3-2-3-333333--3-2-333333-PM-|
D:--3-2-3-333333--3-2-333333----|

Interlude:
(clean)
  'even if i was all knowing...'
G:------9-9-------------|
D:--8-8-7-7--0-0-0-0-0--|
A:--8-8-7-7--0-0-0-0-0--|
D:--8-8-7-7--0-0-0-0-0--|
Comments