Chevelle - Send The Pain Below Chords & Tabs

 

Send The Pain Below Chords & Tabs

Chevelle Chords & Tabs

Version: 9 Type: Tab 0 ratings
1 star 2 stars 3 stars 4 stars 5 stars
comments

Send The Pain Below Tab

this a great song, and even greater, it's easy to play!!!!
first of all. they are in drop B tuning, which is rather interesting. i assume
that they're actually in drop C# and are using a guitar effect to lower the pitch
by two half steps.

the tuning is as follows, low to high: B, Gb(F#), B, E, Ab(G#), Db(C#)
you'll be fine if you play in drop D (D,A,D,G,B,E). you just won't be able to
play along w/ the CD.

i won't write how many times to play each chord. just listen to the song.
it's nothing too difficult. if you have a questions just e-mail me, i'd be glad
to you help you out. sorry this is all messy. this is the first tab i've even
posted so i'm still learning how to write this all out. i think it's right on tho.
enjoy!

riff 1:    w/ distortion
E----------------------------------------------------------------
B----------------------------------------------------------------
G-----------------------------11------------7--------------------
D--7------------9-------------x-------------5--------------------
A--5------------9-------------9-------------5--------------------
E--0------------9-------------0-------------5--------------------

riff 2:    w/ distortion
E----------------------------------------------------------------
B----------------------------------------------------------------
G-----11--------------------------------------------a lil feedback here
D-----x----------------------------------------------------------
A-----9----------------------------------------------------------
E-----0----------------------------------------------------------
     just strum once and hold out

riff 3:     clean
E----------------------------------------------------------------
B----------------------------------------------------------------
G-----11--------------------------------------9------------------
D-----x---------------------------------------x------------------
A-----9---------------------------------------7------------------
E-----x---------------------------------------x------------------
count:1     2     3     4     5    6    7     8

riff4:       clean
E----------------------------------------------------------------
B----------------------------------------------------------------
G-----7-----------------------11-----------7---------------------
D-----7-----------9-----------x------------x---------------------
A-----5-----------9-----------9------------5---------------------
E-----x-----------9-----------x------------x---------------------
[ Tab from: http://www.guitartabs.cc/tabs/c/chevelle/send_the_pain_below_tab_ver_9.html ]
riff 5:     clean, then distortion.... as noted
E----------------------------------------------------------------
B----------------------------------------------------------------
G----------------------------------------------------------------
D----0----2---0-----2---5---2------------------------------------
A----0----2---0-----2---5---2------------------------------------
E----0----2---0-----2---5---2------------------------------------
 this riff is for the bridge. there's a few parts though where it's different.
you'll hear them bending a string. as far as i can tell, just gradually bend your
lowest string on the 2nd fret


intro: riff1  x1

VERSE1

riff2 x2
I like having hurt
So send the pain below where I need it

           riff3 x4
You used to beg me to take care of things
And smile at the thought of me failing

    riff4  x2
But long before having hurt
I'd send the pain below
I'd send the pain below

CHORUS
                riff1   x4
much like suffocating
much like suffocating
much like suffocating (I'd send the pain below)
much like suffocating (I'd send the pain below)

VERSE 2

        riff 3  x4
You used run me away
All while laughing
Then cry about that fact
Til i returned

    riff4  x2
But long before having hurt
I'd send the pain below
I'd send the pain below

CHORUS
                riff1   x4
Much like suffocating
Much like suffocating
Much like suffocating (I'll send the pain below)
Much like suffocating (I'll send the pain below)
Much like suffocating

bridge:

riff5(clean) x2 then bend

                riff5(distortion) x3 then bend 
I can'y feel my chest 
Need more
      riff5(distortion) x8 then bend extra long
Drop down,
Closing in
I can't feel my chest (chest, chest) (RAHH!!!.)
Drop down! (RAHHHHHH!!!.)


riff 1 from here on out

I liked,
Having hurt,
So send the pain below,
So send the pain below (Much like suffocating) (I liked),
So send the pain below (Much like suffocating) (Having hurt),
So send the pain below (Much like suffocating),
So send the pain below (Much like suffocating),
So send the pain below.


end on:
E----------------------------------------------------------------
B----------------------------------------------------------------
G-----11---------------------------------------------------------
D-----x----------------------------------------------------------
A-----9----------------------------------------------------------
E-----0----------------------------------------------------------
Comments