Chevelle - Send The Pain Below Chords & Tabs

 

Send The Pain Below Chords & Tabs

Chevelle Chords & Tabs

Version: 8 Type: Tab 0 ratings
1 star 2 stars 3 stars 4 stars 5 stars
comments

Send The Pain Below Tab

   
Chevelle - Send The Pain Below
Submitted By: Neefrey Cocjin
EMail: Neefjin@yahoo.com
Wonder What's Next
Tuning - Dropped-D down 5 half steps - B-F#-B-E-G#-C#

I'll just put the chords for each part of the song and you can 
listen to the song for the timing; how does that sound? ;)

^ = Strum behind nut

Intro/Pre-Chorus/Chorus
|-----------------|
|-----------------|
|11---11---11---7-|
|x----9----x----5-|
|9----9----9----5-|
|-----9---------5-|

Verse Pt.1
|----------------|
|----------------|
|--------11------|
|0---^---9-----^-|
|0---^---9-----^-|
|0---^---9-----^-|
[ Tab from: http://www.guitartabs.cc/tabs/c/chevelle/send_the_pain_below_tab_ver_8.html ]
Verse Pt. 2 (Main)
You play the first chord for most of the verse, and the second
one once each time you cycle through the riff.
|---------------|
|---------------|
|11--9----------|
|x---x----------|
|9---7----------|
|---------------|

Breakdown
|-------------------------------------------------------|
|-------------------------------------------------------|
|-------------------------------------------------------|
|0h2-2-2-0---0-0h5-5-5-5-0---0-0h2-2-2-0---0-0h5-5-5-0-4|
|0h2-2-2-0---0-0h5-5-5-5-0---0-0h2-2-2-0---0-0h5-5-5-0-4|
|0h2-2-2-0---0-0h5-5-5-5-0---0-0h2-2-2-0---0-0h5-5-5-0-4|

Man that song rules. I got this tab from watching Pete play this on 
ABC, so you can email if you want, but it really won't do you much 
good to argue with me since I saw the guy play it!
Rock On! 
Luke Brown
lpbrown@iastate.edu
Comments