Chevelle - Send The Pain Below Chords & Tabs

 

Send The Pain Below Chords & Tabs

Chevelle Chords & Tabs

Version: 6 Type: Tab 0 ratings
1 star 2 stars 3 stars 4 stars 5 stars
comments

Send The Pain Below Tab

   
This is the newest single off of "Wonder whats Next"....great alblum if
you dont already have it!!!! I saw these guys live in Toronto w./ Disturbed and
Taproot, and this be what the eyes saw!

Tuning: (low to high) B-F#-B-E-G#-C#
4/4 time


Intro
(w/dist.)

C#--------------------------------------------------------------------------
G#--------------------------------------------------------------------------
E -----14---14---14----14-14-14-14-14------11---11-11--11-11-11-11-11-11----
B -----X----X----X-----X--X--X--X--X-------9----9--9---9--9--9--9--9--9--0-0
F#-----12---12---12----12-12-12-12-12------9----9--9---9--9--9--9--9--9--0-0
B -----0----0----0-----0--0--0--0--0-------9----9--9---9--9--9--9--9--9--0-0

----------------------------------------------------------------------------
----------------------------------------------------------------------------
--11---11-11---11-11-11-11-11-11-11------7----7--7--7----7--7--7--7--7------
--X----X--X----X--X--X--X--X--X--X-------5----5--5--5----5--5--5--5--5---0-0
--9----9--9----9--9--9--9--9--9--9-------5----5--5--5----5--5--5--5--5---0-0
--0----0--0----0--0--0--0--0--0--0-------5----5--5--5----5--5--5--5--5---0-0


VERSE....RIFF 1
(mild dist.)

I................like,..........  hav-ing......hurt,..................... So..
(let ring each time)
                                                                   *feedback    
-----------------------------------------------------------------------------
-----------------------------------------------------------------------------
--11-------------------------------------------11----------------------------
--X--------------------------------------------X-----------------------------
--9--------------------------------------------9-----------------------------
--0--------------------------------------------0-----------------------------


send the pain below.........where i need it......................you used to..

                                                                   *feedback
------------------------------------------------------------------------------
------------------------------------------------------------------------------
--11-------------------------------------------11-----------------------------
--X--------------------------------------------X------------------------------
--9--------------------------------------------9------------------------------
--0--------------------------------------------0------------------------------


VERSE....RIFF 2 (x4)
(no dist.)

beg........me.......to.......take...................................care of...
[ Tab from: http://www.guitartabs.cc/tabs/c/chevelle/send_the_pain_below_tab_ver_6.html ]
------------------------------------------------------------------------------
------------------------------------------------------------------------------
--11------11---11--11--11--11--11-----11---11--11--11--11--11--11--11-----9---
--X-------X----X---X---X---X---X------X----X---X---X---X---X---X---X------X---
--9-------9----9---9---9---9---9------9----9---9---9---9---9---9---9------7---
------------------------------------------------------------------------------
mute the bottom "b" string as well

PRE-CHORUS  (X2)
(no dist.)

(but)long...........................be-fore.........................having.....

-------------------------------------------------------------------------------
-------------------------------------------------------------------------------
--14----14---14----14--14--14--14-----11---11---11--11--11--11--11--11--11-----
--X-----X----X-----X---X---X---X------9----9----9---9---9---9---9---9---9------
--12----12---12----12--12--12--12-----9----9----9---9---9---9---9---9---9------
--0-----0----0-----0---0---0---0------9----9----9---9---9---9---9---9---9------


hurt......................................................................I'd..

-------------------------------------------------------------------------------
-------------------------------------------------------------------------------
--11---11---11---11---11---11---11-----7---7---7---7---7---7---7---7---7-------
--X----X----X----X----X----X----X------5---5---5---5---5---5---5---5---5-------
--9----9----9----9----9----9----9------5---5---5---5---5---5---5---5---5-------
--0----0----0----0----0----0----0------5---5---5---5---5---5---5---5---5-------


CHORUS (x2)

SAME AS PRE CHORUS ONLY ADD DISTORTION!!!!!!!!!!!!!!!!!!!!!!!!!!!!!!!!!!!!!!!!



BRIDGE (x6)

** First time through, no dist., until Pete yells "chest" **

...........................................................I can't feel my.....
-------------------------------------------------------------------------------
-------------------------------------------------------------------------------
-------------------------------------------------------------------------------
--0-h2-2-2-2p-0----0-0-h5-5-5-5p-0-0-0----0-h2-2-2-2p-0----0-0-h5-5-5-5--4-----
--0-h2-2-2-2p-0----0-0-h5-5-5-5p-0-0-0----0-h2-2-2-2p-0----0-0-h5-5-5-5--4-----
--0-h2-2-2-2p-0----0-0-h5-5-5-5p-0-0-0----0-h2-2-2-2p-0----0-0-h5-5-5-5--4-----

**On the second time through, Pete plays this hold for the last half of the bar,
before going into the 3 time through the bridge**

-----------
-----------
-----------
-----------
-----------
---2~~~~~--

**He closes the bridge with the same hold, but adds a 1/4 bend, then goes
back to Chorus Riff 2** 

                  1/4
---------------------
---------------------
---------------------
---------------------
---------------------
---2~~~~~--------(2)-

**He closes the outro, with this chord, let it ring!!!!**

------
------
--11--
--X---
--9---
--0---


Intro        (x1)
Verse Riff 1 (x2) I know i have the whole thing tabbed out, but its really twice
Verse Riff 2 (x4)
Pre-Chorus   (x2)
Chours       (x2)

Verse Riff 2 (x4)
Pre-Chorus   (x2)
Chorus       (x2)
Bridge       (x6)w/holds
Outro        (Chorus x4), then final chord!


This is a killer song!! And not that difficult!!
Email me if have any q's or complaints and PICK UP THE RECORD!!!!!
Hippietrash@hotmail.com
Peace!!
Comments