Chevelle - Send The Pain Below Chords & Tabs

 

Send The Pain Below Chords & Tabs

Chevelle Chords & Tabs

Version: 5 Type: Tab 0 ratings
1 star 2 stars 3 stars 4 stars 5 stars
comments

Send The Pain Below Tab

   
Chevelle - Send The Pain Below

Tabbed: Chris Gatzka

TUNE C3 G3 C4 F4 A4 D5


Intro/Chorus
|---------------|
|---------------|
|--------9--10--|
|-10--7--x--10--| X1   Distortion
|-10--7--7--8---|
|-10--7---------|


Bridge (After Intro)
|----|
|----|
|----|
|-10-| Let Ring   
|-10-|
|-10-|

Natural Harmonic       X2   Distortion
|---|
|---|
|---|
|---| Let Ring  
|---|
|-6-|



Verse
|---------|
|---------|
|-9--5--7-|
|-x--x--x-|    X4   Clean
|-7--3--5-|
|---------|


|-------------|
|-------------|
|-10-9--9--10-|
|-X--7--x--10-|     x2    Clean
|-12-7--7--8--|
|----7--------|


Intro/Chorus
|---------------|
|---------------|
|--------9--10--|
|-10--7--x--10--| X2   Distortion
|-10--7--7--8---|
|-10--7---------|



Bridge (After Intro)
|----|
|----|
|----|
|-10-| Let Ring   Distortion
|-10-|
|-10-|


Verse
|---------|
|---------|
|-9--5--7-|
|-x--x--x-|    X4   Clean
|-7--3--5-|
|---------|

[ Tab from: http://www.guitartabs.cc/tabs/c/chevelle/send_the_pain_below_tab_ver_5.html ]
|-------------|
|-------------|
|-10-9--9--10-|
|-X--7--x--10-|     x2   Clean
|-12-7--7--8--|
|----7--------|


Intro/Chorus
|---------------|
|---------------|
|--------9--10--|
|-10--7--x--10--| X2   Distortion
|-10--7--7--8---|
|-10--7---------|



Interlude
|--------------------------|
|--------------------------|
|--------------------------|
|-2-2-2-2-2-0--5-5-5-5-4-4-|   2x   Clean 
|-2-2-2-2-2-0--5-5-5-5-4-4-|
|-2-2-2-2-0-0--5-5-5-5-4-4-|



|----------|
|----------|
|-Strum----|
|----------|   Distortion
|----------|
|-2-----10-|



Interlude 
|--------------------------|
|--------------------------|
|--------------------------|
|-2-2-2-2-2-0--5-5-5-5-4-4-|   10X   Distortion
|-2-2-2-2-2-0--5-5-5-5-4-4-|
|-2-2-2-2-0-0--5-5-5-5-4-4-|


|----------|
|----------|
|-Strum----|
|----------|   Distortion
|----------|
|-2-----10-|



Intro/Chorus
|---------------|
|---------------|
|--------9--10--|
|-10--7--x--10--| X4   Distortion
|-10--7--7--8---|
|-10--7---------|



End
|----|
|----|
|----|
|-10-|  Let Ring    Distortion
|-10-|
|-10-|
Volume balance
Comments